MUZBANK



A Most Complete Bank Of Music Information

МУЗЫКАЛЬНО-ИНФОРМАЦИОННЫЙ БАНК

Поиск по сайту







    RRivermaya • Karayom (аккорды и текст - chords & lyrics)


    243

    Print

    Видео «Karayom (Rivermaya)»

    Видео клипы к песне подбираются автоматически сайтом youtube. Возможны некоторые несоответствия клипов песне.

    ↑ Спрятать рекламу ↑



    Download


     
    
    
    Song: Karayom
    Artist: Rivermaya
    Album: Tuloy Ang Ligaya
    Tabbed by: John Menard De Vera
    
    Di ako sure dito pero sana ayos lang sa inyo to.. Kung may suggestions
    comments email me at JeraizenMarilyn@yahoo.com baguhin nyo na lang yung
    mali tapos sabihin nyo sa kin.. favorite ko kasi talaga to..thanks!!
    Tingnan nyo na lang din yung album nila my mga chords ang bawat kanta dun..
       
    Chords Used: A (577455)
                 C# (x46654)
                 D (xx0232)
                 Dm (xx0231)
    
    Intro: Guitar 1 (strumming the chords with distortion..)
           
           Guitar 2    
           e-----------------------!
           B-----------------------!
           G-----------------------!
           D--5-4-4s7-7S9-5--------!
           A------------------2-2h3!
           E-----------------------!
    
    Verse: 
           Part 1     
           e--------5!--------4!--------2!--------1-!
           B---------!---------!------3--!------3---!
           G------6--!------6--!----2----!----2-----! 
           D----7----!----6----!--0------!--0-------!
           A---------!--4------!---------!----------!
           E--5------!---------!---------!----------!
           
           Part 2 (Strum)
           
           A-C#-D-Dm
    
    Refrain: C#m D C#m D Dm
    
    Chorus: A-Bm-Dm-A
    
    After Chorus: 
                  e----------------------!
                  B----------------------!
                  G----------------------!
                  D--7--6--9--11--7--7S12!
                  A----------------------!
                  E----------------------!
    
    Solo:
         e-------------------------------------------------------------!
         B-------------------------------------------------------------!
         G---------6----------------7----------------------------------!
         D------------7----------------9--12--14--14h15--14--12--11h12-!
         A--4--7---------7--4S5--9-------------------------------------!
         E-------------------------------------------------------------!
    
         e-------------------------------!---------------!
         B-------------------------------!---------------!
         G---------6----------------7----!---------------!
         D------------7----------------9-!12--14--16--17-!
         A--4--7---------7--4s5--9-------!---------------!
         E-------------------------------!---------------!
    
         Magsweep picking na lang kayo sa 12--14--16--17..
    
    
    
    Lyrics:
           
    Part 1: Natusok ka ng isang karayom
            na gimagamit mo pantahi ng butas na palda mo
    Part 2: talagang ganyan wag kang matakot 
            hayaan mo at bukas ay wala na ang kirot
    
            pikit mo na lang muna ang iyong mga mata
    
    Chorus: AHH!!!hinay hinay lang riyan sinta
            AHH!!!wag ka nang lumuha wag ka nang lumuha 
    
    Part 1  Kumusta ka? iniisip mo ba?
            di mo na malilimutan ang araw na ito
    Part 2  nangyari na, nangyari na
            di na mauulit dugo at sakit na nadama
     

    Тональность:

    Нет текста!



    Назад
    Рекомендуем посмотреть другие песни исполнителя «Rivermaya»:

    • Комментарии Facebook ()
    • Комментарии ВКонтакте



    Добавить в Избранное Браузера
    Сохранить здесь Очистить


    x

    0


    +
    -

    +
    -

    -

    Авторизация





    Зарегистрироваться

    M

    Дата и время

    • 05:06:35
       

    Социальные ссылки


    Наши приложения

    • Muzbank App Play Market
    • Muzbank Amazon App