MUZBANK



A Most Complete Bank Of Music Information

МУЗЫКАЛЬНО-ИНФОРМАЦИОННЫЙ БАНК

Поиск по сайту







    RRolling Stones • No Expectation (аккорды и текст - chords & lyrics)


    268

    Print

    Видео «No Expectation (Rolling Stones)»

    Видео клипы к песне подбираются автоматически сайтом youtube. Возможны некоторые несоответствия клипов песне.

    ↑ Спрятать рекламу ↑



    Download


    INTRO:  C  G   C  G    C  G    F  C  G
    
            AND/OR
    
    PLAYED WITH SLIDE BAR:
    
    E|------3------------|------3-------------|
    B|-3/5*---5-5------3-|-3/5*---5-5-------3-|NOTE: * means slide
    G|------------3/4*---|-------------3/4*---|       to but don`t
    D|-------------------|--------------------|       strike the
    A|-------------------|--------------------|       note.
    E|-------------------|--------------------|
    
    INTRO CONTINUED:
    
    E|-------3-----------3--|------------------------------------|
    B|--3/5*---5-5--3/5*----|--9/10*---10/8*---10/12*---10/12*---|
    G|----------------------|--9/10*---10/8*---10/12*---10/12*---|
    D|----------------------|------------------------------------|
    A|----------------------|------------------------------------|
    E|----------------------|------------------------------------|
    
    VERSE:
    
     C               G
    Take me to the station
         C            G
    And put me on a train
          C           G
    I`ve got no expectations
        F            C     G
    To pass through here again
    
    VERSE:
    
    Once I was a rich man
    Now I am so poor
    But never in my sweet short life
    Have I felt like this before
    
    VERSE:
    
    Your heart is like a diamond
    You throw your pearls at swine
    And as I watch you leaving me
    You pack my piece of mind
    
    INSTRUMENTAL:  PLAY INTRO OVER - CHORDS AND ALSO SLIDE BAR PART
    
    VERSE:
    
    Our love was like the water
    That splashes on a stone
    Our love is like our music
    It`s here, and then it`s gone
    
    VERSE:
    
    So take me to the airport
    And put me on a plane
    I got no expectations
    To pass thrugh here again
    
    OUTRO: -- INSTRUMENTAL -- PLAY INTRO OVER -
              CHORDS AND SLIDE BAR PART
    

    Тональность:

    Нет текста!



    Назад
    Рекомендуем посмотреть другие песни исполнителя «Rolling Stones»:

    • Комментарии Facebook ()
    • Комментарии ВКонтакте



    Добавить в Избранное Браузера
    Сохранить здесь Очистить


    x

    0


    +
    -

    +
    -

    -

    Авторизация





    Зарегистрироваться

    M

    Дата и время

    • 09:12:08
       

    Социальные ссылки


    Наши приложения

    • Muzbank App Play Market
    • Muzbank Amazon App