MUZBANK



A Most Complete Bank Of Music Information

МУЗЫКАЛЬНО-ИНФОРМАЦИОННЫЙ БАНК

Поиск по сайту







    RRoxette • The Look (аккорды и текст - chords & lyrics)


    749

    Print

    Видео «The Look (Roxette)»

    Видео клипы к песне подбираются автоматически сайтом youtube. Возможны некоторые несоответствия клипов песне.

    ↑ Спрятать рекламу ↑



    Download



    e|---------------------|
    B|---------------------|
    G|---------------------|    } riff 1
    D|---7---5-4-4h5p4p0---|
    A|-0---0-------------0-|
    E|---------------------|
    
    e|---------------------|
    B|---------------------|
    G|---------------------|    } riff 2
    D|-----7---4-4h5p4p0---|
    A|-0-0---0-----------7-|
    E|---------------------|
    
    [riff 1]
    1-2-3-4
    [riff 1] [riff 2]
    A
    Walking like a man, hitting like a hammer,
    she?s a juvenile scam. Never was a quitter,
    tasty like a raindrop, she?s got the look.
    Heavenly bound cause heaven?s got a number
    when she?s spinning me around, kissing is a colour,
    her loving is a wild dog, she?s got the look.
    
    [riff 2]
                  A                   A
    She?s got the look. She?s got the look.
                                                      A
    What in the world can make a brown-eyed girl turn blue.
                                             A
    When everything I?ll ever do I?ll do for you
              G           D
    and I go: la la la la la she?s got the look.
    
    A
    Fire in the ice,
    naked to the T-bone is a lover?s disguise.
    Banging on the head drum,
    shaking like a mad bull, she?s got the look.
    
    [riff 2]
    A
    Swaying to the band,
    moving like a hammer, she?s a miracle man.
    Loving is the ocean,
    kissing is the wet sand, she?s got the look.
    
    [riff 2]
    
    [Chorus]
    [riff 1] [riff 2]
    Solo:
    e|-------------------------------------------|
    B|-12----10----9---10-8---12----10----9---10-|
    G|----13----11---9-----------13----11---9----|
    D|-------------------------------------------|
    A|-------------------------------------------|
    E|-------------------------------------------|
    
    E|---------------------------------|
    B|---------------------------------|
    G|---------------------------2-----|
    D|-----------2-------------2---2---|
    A|---------2---2---0-0-0-0-------0-|
    E|-0-0-0-0-------0-----------------|
    
                       hold...
    E|---------------------|
    B|--12----10----9---10-|
    G|-----13----11---9----|
    D|---------------------|
    A|---------------------|
    E|---------------------|
    
    E|----------------------------------|
    B|----------------------------------|
    G|----------------------------------|
    D|----------------------------------|
    A|----------------------------------|
    E|--3-3-3-3-3-3-3-3-5-5-5-5-5-5-5-5-|
    
    E|--------------------|
    B|--------------------|
    G|--------------------|
    D|----7---4-4h5p4p0---|
    A|--0---0-----------7-|
    E|--------------------|
    
    E|----------------------------------5-|
    B|----------------------------------5-|
    G|----------------------------------6-|
    D|----------------------------------7-|
    A|----------------------------------7-|
    E|--3-3-3-3-3-3-3-3-5-5-5-5-5-5-5-5-5-|
    

    Тональность:

    Нет текста!



    Назад
    Рекомендуем посмотреть другие песни исполнителя «Roxette»:

    • Комментарии Facebook ()
    • Комментарии ВКонтакте



    Добавить в Избранное Браузера
    Сохранить здесь Очистить


    x

    0


    +
    -

    +
    -

    -

    Авторизация





    Зарегистрироваться

    M

    Дата и время

    • 13:53:49
       

    Социальные ссылки


    Наши приложения

    • Muzbank App Play Market
    • Muzbank Amazon App