MUZBANK



A Most Complete Bank Of Music Information

МУЗЫКАЛЬНО-ИНФОРМАЦИОННЫЙ БАНК

Поиск по сайту







    РРозенбаум Александр • Марш музакантского спецназа (аккорды и текст - chords & lyrics)


    745

    Print

    Видео «Марш музакантского спецназа (Розенбаум Александр)»

    Видео клипы к песне подбираются автоматически сайтом youtube. Возможны некоторые несоответствия клипов песне.

    ↑ Спрятать рекламу ↑



    Download


    Am  www
    
    Публика зал заполняет собою,
    
                           Dm
    
    Пульс где-то в левом плече.
    
                          E7,9-  E7,9- E
    
    Я снаряжаю гитару к бою -
    
                     Am
    
    Близиться время Ч.
    
    
    
    Пальцем большим забиваю патроны
    
    
    Gm6/E    A7          Dm
    
    В деку - свой пулемет.
    
                   B
    
    Скоро ракета светом зеленым
    
    Hm7       Dm     E7
    
    Бросит меня вперед.
    
    
    
              Dm             Am
    
    Предохранитель вниз до упора,
    
    
    Gm6/E    A7     Dm
    
    Очередь от живота.
    
                Am
    
    Я обожаю расстреливать город:
    
    hm|--2-------
    |--2-3-----
    |--2---4---
    |--2---4---
    |--2-------
    |--2-------Hm7               E7,9-     e|------------
    |------------
    |---1--------
    |------2-----
    |------2-----
    |------------E        am|--------
    |---1----
    |-----2--
    |-----2--
    |--------
    |--------Am
    
    Да-да-да-да-да-да-да-да-да-да-да-да-да!
    
    dm|--1------
    |-------3-
    |----2----
    |---------
    |---------
    |---------
    Dm           am|--------
    |---1----
    |-----2--
    |-----2--
    |--------
    |--------Am
    
    Я обожаю расстреливать город:
    
    hm|--2-------
    |--2-3-----
    |--2---4---
    |--2---4---
    |--2-------
    |--2-------Hm7               E7,9-     e|------------
    |------------
    |---1--------
    |------2-----
    |------2-----
    |------------E        am|--------
    |---1----
    |-----2--
    |-----2--
    |--------
    |--------Am
    
    Да-да-да-да-да-да-да-да-да-да-да-да-да!
    
    
    
    
    
    Выкатив свет на прямую наводку,
    
                    dm|--1------
    |-------3-
    |----2----
    |---------
    |---------
    |---------
    Dm
    
    Пушки на сцене бьют.
    
    Жаль что наркомовских сто граммов водки
    
                  e|------------
    |------------
    |---1--------
    |------2-----
    |------2-----
    |------------E  E7,9-  E5+  e|------------
    |------------
    |---1--------
    |------2-----
    |------2-----
    |------------E
    
    Не наливают тут.
    
    
    
     am|--------
    |---1----
    |-----2--
    |-----2--
    |--------
    |--------Am
    
    Взорвана рампа с пульта помрежа,
    
     gm|-----3---
    |-----3---
    |---------
    |---------
    |-1-------
    |-----3---
    Gm6/E    a7|---------
    |--2------
    |---------
    |--2------
    |---------
    |---------A7    dm|--1------
    |-------3-
    |----2----
    |---------
    |---------
    |---------
    Dm
    
    Сзади: Санёк, прикрой!
    
                        am|--------
    |---1----
    |-----2--
    |-----2--
    |--------
    |--------Am
    
    Ну-ка, двенадцатиструнная, врежь им,
    
     hm|--2-------
    |--2-3-----
    |--2---4---
    |--2---4---
    |--2-------
    |--2-------Hm7   E7       am|--------
    |---1----
    |-----2--
    |-----2--
    |--------
    |--------Am
    
    Будет красивый бой.
    
    
    
    Предохранитель вниз до упора,
    
    Очередь от живота.
    
    Я обожаю расстреливать город:
    
    Да-да-да-да-да-да-да-да-да-да-да-да-да!
    
    Я обожаю расстреливать город:
    
    Да-да-да-да-да-да-да-да-да-да-да-да-да!
    
    
    
    Вроде победа, да только в партере
    
    Кто-то еще живой.
    
    Планку сдвигаю на дальномере
    
                  E7,9- E5+ e|------------
    |------------
    |---1--------
    |------2-----
    |------2-----
    |------------E
    
    Мощности огневой.
    
    
    
     am|--------
    |---1----
    |-----2--
    |-----2--
    |--------
    |--------Am
    
    Залп из рояля песней недлинной,
    
            a7|---------
    |--2------
    |---------
    |--2------
    |---------
    |---------A7    dm|--1------
    |-------3-
    |----2----
    |---------
    |---------
    |---------
    Dm
    
    И пару нот в упор.
    
                     am|--------
    |---1----
    |-----2--
    |-----2--
    |--------
    |--------Am
    
    Грудь разорвало, выгнуло спину -
    
    hm|--2-------
    |--2-3-----
    |--2---4---
    |--2---4---
    |--2-------
    |--2-------Hm7       E7       am|--------
    |---1----
    |-----2--
    |-----2--
    |--------
    |--------Am
    
    Вот он и весь разговор.
    
    
    
    Предохранитель вниз до упора,
    
    Очередь от живота.
    
    Я обожаю расстреливать город:
    
    Да-да-да-да-да-да-да-да-да-да-да-да-да!
    
    Я обожаю расстреливать город:
    
    Да-да-да-да-да-да-да-да-да-да-да-да-да!
    
    
    
    dm|--1------
    |-------3-
    |----2----
    |---------
    |---------
    |---------
    Dm6 e|------------
    |------------
    |---1--------
    |------2-----
    |------2-----
    |------------E am|--------
    |---1----
    |-----2--
    |-----2--
    |--------
    |--------Am
    

    Тональность:

    Нет текста!



    Назад
    Рекомендуем посмотреть другие песни исполнителя «Розенбаум Александр»:

    • Комментарии Facebook ()
    • Комментарии ВКонтакте



    Добавить в Избранное Браузера
    Сохранить здесь Очистить


    x

    0


    +
    -

    +
    -

    -

    Авторизация





    Зарегистрироваться

    M

    Дата и время

    • 20:35:06
       

    Социальные ссылки


    Наши приложения

    • Muzbank App Play Market
    • Muzbank Amazon App