MUZBANK



A Most Complete Bank Of Music Information

МУЗЫКАЛЬНО-ИНФОРМАЦИОННЫЙ БАНК

Поиск по сайту







    РРозенбаум Александр • Вальс-Бостон (аккорды и текст - chords & lyrics)


    259

    Print

    Видео «Вальс-Бостон (Розенбаум Александр)»

    Видео клипы к песне подбираются автоматически сайтом youtube. Возможны некоторые несоответствия клипов песне.

    ↑ Спрятать рекламу ↑



    Download



     
    
    
    E||---5-----------5--3--2--3--|
    B|----0------||---------0-----------------|
    G|-3---------||*-----0-----0--------------|
    D||*--------------------------|
    A|----2-----------|
    E||---0-----------------------|
    
    
    
    --2--0--0--------------0--|--3-----------------------------------|
    -----------0-----0--4-----|--------1--1--1-----------------------|
    -----------------0-----------------2-----------1--2--|
    --------------------------------2-----2-----2--------|
    --------------2-----------|--0--2--------0-----------3-----------|
    --0--------------------------------------------------|
    
    
    
    --3-----------3--2--0--2--|--0-----------------------|
    --------3-----1-----------|--1--3--3-----------2--3--|
    -----2-----2--2-----------|--2--------------2--------|
    --------------------------|--0--------------0--------|
    --0-----------0--------------------------|
    --------------------------|--------0--1--2-----------|
    
    
    
    --2-----------------------|--5--3--3-----------2--3--|
    -----0--0--------------0--0-----0--------|
    -----------0-----2--3-----|--------0--------2--------|
    --------0--------1-----------------------|
    --3-----------2--------------2-----------|
    --------------------------|--0-----------------------|
    
    
    
    --2--0--0-----------0-----|--7-----------------8--5-----3--0--3--|
    -----------0--4-----------|--------5--------5--------------------|
    --------0--------0-----0--|-----5-----5-----5--------------------|
    -----------------------------------------------------|
    --------------------------|--0-----------------------------------|
    --3--------------------------0-----------0-----------|
    
    
    
    --3-----------------2--1--|--2-----------------------|
    --------------------------------2--1--2--|
    --------3--------3--------|--------2-----------------|
    -----2-----2-----0--------2--------------|
    --3--------------------------0-----------|
    --------------3-----------|--2-----------------------|
    
    
    
    --0-----2--0-----------------7-----------||
    -----1--------4-----------0----------0---||
    -----2--------------2-----|--------0----------3-----*||
    --2--------------4-----4--|-----1-------------------*||
    --------------2-----------|--2-----------------------||
    -----------------------------------------||
    
    
    
    --------------7--------0--||---2--0--0--------------------|
    -----------0--------4-----||---3--------3--------3--2--3--|
    --------0--------0--------||*--0-----------0--------------|
    -----1--------------------||*-----------------------------|
    --2-----------------------|-------2-----------|
    --------------------------||---0--------------------------|
    
    
    
    --0-----------------------------------------|
    --3--3--3--2--------2--1--2--|--3--2--1--2--3--2--1-----|
    --0-----------0--------------|--0-----------------------|
    -----------------------------------------4--|
    -----------------2--------------2-----------|
    --0-----------------------------------------|
    
    
    
    -----------------5--5--5--|--7--5--5--3-------3--2--3--|
    --0-----------------------|--5-------------------------|
    --------2-----------------|--5-------------------------|
    -----1-----1-------------------------------|
    --------------3----------------0-----------|
    --2-----------------------|--5-------------------------|
    
    
    
    --5--3--3--2--------2--1--2--|--3--2--3--2--3--2--------|
    -----------------------------|--4-----------------4--1--|
    -----------------------------|--2-----------------------|
    --------------------------------------------|
    --0--------------0-----------|--2-----------------------|
    --------------0-----------------------------|
    
    
    
    -----------------------0---|------3--2--3--|
    --0-----------0-----4------||--3--2--1--2--0-----------|
    -----------0-----0--------*||--3-----------2-----------|
    --------2-----------------*||--2-----------1-----------|
    -----4---------------------|---2-----------|
    ---------------------------||--2-----------------------|
    
    
    
    --0-----------12--------||
    --------0-----12--------||
    -----0-----0--12--------||
    ------------------------||
    ------------------------||
     

    Тональность:

    Нет текста!



    Назад
    Рекомендуем посмотреть другие песни исполнителя «Розенбаум Александр»:

    • Комментарии Facebook ()
    • Комментарии ВКонтакте



    Добавить в Избранное Браузера
    Сохранить здесь Очистить


    x

    0


    +
    -

    +
    -

    -

    Авторизация





    Зарегистрироваться

    M

    Дата и время

    • 13:48:38
       

    Социальные ссылки


    Наши приложения

    • Muzbank App Play Market
    • Muzbank Amazon App