MUZBANK



A Most Complete Bank Of Music Information

МУЗЫКАЛЬНО-ИНФОРМАЦИОННЫЙ БАНК

Поиск по сайту







    RRufio • Pirate (аккорды и текст - chords & lyrics)


    199

    Print

    Видео «Pirate (Rufio)»

    Видео клипы к песне подбираются автоматически сайтом youtube. Возможны некоторые несоответствия клипов песне.

    ↑ Спрятать рекламу ↑



    Download



     
    
    
    --------------------------------------------------------------------------------
                                      RUFIO - Pirate
    --------------------------------------------------------------------------------
    
    Not 100% correct but very very decent
    tabbed by: Alvin M.
    
    p = pull off
    ~ = let ring
    4x = Immediatly pause after picking note
      
      Intro x2
    G|-----------------------------------------------------------------------------|
    D|-----0-0-----4-4-----5-5-----4p2p0-----0-0-----4-4-----5-5-----7-7-----------|
    A|-2-2-----0-0-------------0-0-------2-2-----0-0-------------0-0---------------|
    E|-----------------3-3-------------------------------3-3-----------------------|
      End On
    G|----------|
    D|----------|
    A|----------|
    E|--3~---5~-|
    
      Verse x2
    G|-----------------------------------------------------------------------------|
    D|-----------------------------------------------------------------------------|
    A|-2-0-2-0-2-0-2-0-5--------2-0-2-0-2-0-2-0-5-5--------------------------------|
    E|-------------------3-5-2----------------------5-5----------------------------|
    
      Bridge x2
    G|-----------------------------------------------------------------------------|
    D|-----------------------------------------------------------------------------|
    A|---------------------------------2-2-0-2-4-5-4-0-2-2-0-2-4-5-4---------------|
    E|-3-3-3-3-3-3-3-3-3-3-3-3-3-3-3-3---------------------------------------------|
    
      End On
    G|---------------------------------|
    D|---------------------------------|
    A|---------------------------------|
    E|-3-3-3-3-3-3-3-3-5-5-5-5-5-5-5-5-|
    
      Intro x2
    G|-----------------------------------------------------------------------------|
    D|-----0-0-----4-4-----5-5-----4p2p0-----0-0-----4-4-----5-5-----7-7-----------|
    A|-2-2-----0-0-------------0-0-------2-2-----0-0-------------0-0---------------|
    E|-----------------3-3-------------------------------3-3-----------------------|
    
      Breakdown x2
    G|-----------------------------------------------------------------------------|
    D|-----------------------------------------------------------------------------|
    A|-2x-0-0-0-2x----2x-0-0-0-5~--------------------------------------------------|
    E|-------------3~-------------5~-----------------------------------------------|
    
      Verse x2
    G|-----------------------------------------------------------------------------|
    D|-----------------------------------------------------------------------------|
    A|-2-0-2-0-2-0-2-0-5--------2-0-2-0-2-0-2-0-5-5--------------------------------|
    E|-------------------3-5-2----------------------5-5----------------------------|
    
      Bridge x2
    G|-----------------------------------------------------------------------------|
    D|-----------------------------------------------------------------------------|
    A|---------------------------------2-2-0-2-4-5-4-0-2-2-0-2-4-5-4---------------|
    E|-3-3-3-3-3-3-3-3-3-3-3-3-3-3-3-3---------------------------------------------|
    
      End On
    G|---------------------------------|
    D|---------------------------------|
    A|---------------------------------|
    E|-3-3-3-3-3-3-3-3-5-5-5-5-5-5-5-5-|
    
     Intro x2
    G|-----------------------------------------------------------------------------|
    D|-----0-0-----4-4-----5-5-----4p2p0-----0-0-----4-4-----5-5-----7-7-----------|
    A|-2-2-----0-0-------------0-0-------2-2-----0-0-------------0-0---------------|
    E|-----------------3-3-------------------------------3-3-----------------------|
    
      End On
    G|------------------|
    D|------------------|
    A|-2-2-2------------|
    E|-------5-5-5-3-3x-|
    
      Solo
    G|-----------------------------------------------------------------------------|
    D|-----0-0---------------0-0---------------0-0---------------0-0---------------|
    A|-2-2-----0-0-5p4p0---------0-0-5p4p0-2-2-----0-0-5p4p0---------0-0-5p4p0-----|
    E|-------------------3-3---------------------------------3-3-------------------|
    
    G|-----------------------------------------------------------------------------|
    D|-----0-0---------------0-0---------------0-0---------------0-0---------------|
    A|-2-2-----0-0-5p4p0---------0-0-5p4p0-2-2-----0-0-5p4p0---------0-0-5p4p0-----|
    E|-------------------3-3---------------------------------3-3-------------------|
    
    G|-----------------------------------------------------------------------------|
    D|--------------------0-0------------------------------0-0---------------------|
    A|-2-2x-0-0-5p4p0---------0-0-5p4p0-2-2x-0-0-5p4p0---------0-0-5p4p0-----------|
    E|----------------3-3------------------------------3-3-------------------------|
              
    G|-----------------------------------------------------------------------------|
    D|-----------------------------------------------------------------------------|
    A|-2-2x-0-0-5p4p0------0-0-5p4p0-2-2x-0-0-5p4p0--------------------------------|
    E|----------------3-3x--------------------------3-3-5-5------------------------|
    
      Intro x4
    G|-----------------------------------------------------------------------------|
    D|-----0-0-----4-4-----5-5-----4p2p0-----0-0-----4-4-----5-5-----7-7-----------|
    A|-2-2-----0-0-------------0-0-------2-2-----0-0-------------0-0---------------|
    E|-----------------3-3-------------------------------3-3-----------------------|
    
      Outro
    G|-----------------------------------------|
    D|-----------------------------------------|
    A|-2-2-2-2-2-0-2-5-4-0-2-------------------|
    E|-----------------------------------------|
    
    Is this the only bass tab of Pirate on the Internet?
     

    Тональность:

    Нет текста!



    Назад
    Рекомендуем посмотреть другие песни исполнителя «Rufio»:

    • Комментарии Facebook ()
    • Комментарии ВКонтакте



    Добавить в Избранное Браузера
    Сохранить здесь Очистить


    x

    0


    +
    -

    +
    -

    -

    Авторизация





    Зарегистрироваться

    M

    Дата и время

    • 17:37:50
       

    Социальные ссылки


    Наши приложения

    • Muzbank App Play Market
    • Muzbank Amazon App