MUZBANK



A MOST COMPLETE BANK OF MUSIC INFORMATION

МУЗЫКАЛЬНО-ИНФОРМАЦИОННЫЙ БАНК







    RRufio • Pirate (аккорды и текст - chords & lyrics)


    257

    Print

    Видео «Pirate (Rufio)»

    Видео клипы к песне подбираются автоматически сайтом youtube. Возможны некоторые несоответствия клипов песне.

    ↑ Спрятать рекламу ↑






     
    
    
    --------------------------------------------------------|
    -------7------------------------------------------------|
    -6h7-7--9-6-7-7p6h7-9-7-6h7-----------------------------|
    --------------------------------------------------------|
    --------------------------------------------------------|
    --------------------------------------------------------|
    
    --------------------------------------------------------|
    -------7------------------------------------------------|
    -6h7-7--9-6-7-7p6h7-9~----------------------------------|
    --------------------------------------------------------|
    --------------------------------------------------------|
    --------------------------------------------------------|
    
    --------------------------------------------------------|
    -------7------------------------------------------------|
    -6h7-7--9-6-7-7p6h7-9-7-6h7-----------------------------|
    --------------------------------------------------------|
    --------------------------------------------------------|
    --------------------------------------------------------|
    
    --------------------------------------------------------|
    -------7------------------------------------------------|
    -6h7-7--9-6-7-7p6h7-9~-11~-12-12-12-12-11-11-11-11------|
    --------------------------------------------------------|
    --------------------------------------------------------|
    --------------------------------------------------------|
     

    Тональность:

    Это должно быть в ТОП-листе! - Топ-лист композиций



    Назад
    Рекомендуем посмотреть другие песни исполнителя «Rufio»:

    • Комменты Fb ()
    • Комменты ВК



    Добавить в Избранное Браузера
    Сохранить здесь Очистить


    x

    0


    +
    -

    +
    -

    -

    Авторизация





    Зарегистрироваться

    M

    Дата и время

    • 13:52:32
       

    Социальные ссылки


    Наши приложения

    • Muzbank App Play Market
    • Muzbank Amazon App