MUZBANK



A Most Complete Bank Of Music Information

МУЗЫКАЛЬНО-ИНФОРМАЦИОННЫЙ БАНК

Поиск по сайту







    SSaliva • Lackluster (аккорды и текст - chords & lyrics)


    218

    Print

    Видео «Lackluster (Saliva)»

    Видео клипы к песне подбираются автоматически сайтом youtube. Возможны некоторые несоответствия клипов песне.

    ↑ Спрятать рекламу ↑



    Download


     
    
    
    Song: Lackluster
    Artist: Saliva
    Album: Every Six Seconds
    Tabbed By: Cheran Shunmugavel
               
    
    Lowered One and a Half Step Tuning (Db Gb B E)
    
    
    Intro
    E------------
    B------------
    Gb-----------
    Db--0-6h7-6--
    
    
    Main Riff
    E-------------------------------
    B-------------------------------
    Gb----.-----.-----.--.----------
    Db--0-0---0-0---0-0--0-0-6h7-6--
    
    
    Pre-Chorus
    E------------------------
    B------------------------
    Gb--5------3-------------
    Db--------------0-6h7-6--
                                  X2
    E-------------------------------
    B-------------------------------
    Gb----.-----.-----.--.----------
    Db--0-0---0-0---0-0--0-0-6h7-6--
    
    E-----------------------------------------
    B-----------------------------------------
    Gb--5------3------7--7--7--7--5--5--5--5--
    Db----------------------------------------
    
    
    Chorus
    E-------------------------------
    B-------------------------------
    Gb--7------3------5------0------
    Db------------------------------
     

    Тональность:

    Нет текста!



    Назад
    Рекомендуем посмотреть другие песни исполнителя «Saliva»:

    • Комментарии Facebook ()
    • Комментарии ВКонтакте



    Добавить в Избранное Браузера
    Сохранить здесь Очистить


    x

    0


    +
    -

    +
    -

    -

    Авторизация





    Зарегистрироваться

    M

    Дата и время

    • 19:44:51
       

    Социальные ссылки


    Наши приложения

    • Muzbank App Play Market
    • Muzbank Amazon App