MUZBANK



A Most Complete Bank Of Music Information

МУЗЫКАЛЬНО-ИНФОРМАЦИОННЫЙ БАНК

Поиск по сайту







    SSaliva • Sand Castle (аккорды и текст - chords & lyrics)


    273

    Print

    Видео «Sand Castle (Saliva)»

    Видео клипы к песне подбираются автоматически сайтом youtube. Возможны некоторые несоответствия клипов песне.

    ↑ Спрятать рекламу ↑



    Download


     
    
    
    Song: Sand Castle
    Artist: Saliva
    Album: Saliva
    Tabbed By: Cheran Shunmugavel
               
    
    A lot of Saliva bass and guitars are just strumming,
    so most of what I have written may not be the right
    pattern or number of notes, but the notes are correct.
    Listening to the CD should clear it up.
    
    Lowered One and a Half-Step Tuning (Db Gb B E)
    
    
    Intro
    E -----------------9--9----
    B --8--8--8-8-8--8------8--
    Gb-------------------------
    Db-------------------------
    
    E ----9--------9---9---9---9----
    B --8---8--8-8---8---8---8---8--
    Gb------------------------------
    Db------------------------------
                                                   X3
    E -----------------------------------------------
    B -----------------------------------------------
    Gb--8--8--8--8-5--5-5--5-5-5--11111111-11111111--
    Db-----------------------------------------------
    
    E ------------------------------------------------------
    B ------------------------------------------------------
    Gb-------------5--5-5--5-5-5--3--3--3--3-3--3-3--3-3-3--
    Db--1--1--1--1------------------------------------------
    
    
    Verses
    E ----------------------------------------------
    B ----------------------------------------------
    Gb--rest--------------1--1--1--1-1--1-1--1-1-1--
    Db----------------------------------------------
    
    
    Chorus
    E --------------------------
    B --------------------------
    Gb--3--3--3--3-5--5-5--5-5--
    Db--------------------------
    
    E -------------------------
    B -------------------------
    Gb--7--7------7--7-7--7-7--
    Db-------------------------
    
    All of that four times, then:
    
    E --------------------------
    B --------------------------
    Gb--3--3--3--3-5--5-5--5-5--
    Db--------------------------
    
    E ---------------------------------------
    B ---------------------------------------
    Gb--11111111-11111111-11111111-11111111--
    Db---------------------------------------
    
    
    Bridge
    
      Play the first half of the intro, then:      X3
    E -----------------------------------------------
    B -----------------------------------------------
    Gb--8--8--8--8-5--5-5--5-5-5--11111111-11111111--
    Db-----------------------------------------------
    
    E ------------------------------------------------------
    B ------------------------------------------------------
    Gb--8--8--8--8-5--5-5--5-5-5--1--1--1--1-1--1-1--1-1-1--
    Db------------------------------------------------------
    
    
    For the ending, after many repetitions of the main chorus part,
    play the ending of the chorus, slowing down a bit on the last
    two or three notes, followed by:
    
    E -------
    B -------
    Gb--3----
    Db-------
     

    Тональность:

    Нет текста!



    Назад
    Рекомендуем посмотреть другие песни исполнителя «Saliva»:

    • Комментарии Facebook ()
    • Комментарии ВКонтакте



    Добавить в Избранное Браузера
    Сохранить здесь Очистить


    x

    0


    +
    -

    +
    -

    -

    Авторизация





    Зарегистрироваться

    M

    Дата и время

    • 11:21:46
       

    Социальные ссылки


    Наши приложения

    • Muzbank App Play Market
    • Muzbank Amazon App