MUZBANK



A Most Complete Bank Of Music Information

МУЗЫКАЛЬНО-ИНФОРМАЦИОННЫЙ БАНК

Поиск по сайту







    SSamhain • Horror Biz (аккорды и текст - chords & lyrics)


    213

    Print

    Видео «Horror Biz (Samhain)»

    Видео клипы к песне подбираются автоматически сайтом youtube. Возможны некоторые несоответствия клипов песне.

    ↑ Спрятать рекламу ↑



    Download



     
    
    
    -------------------------------------------------------------------------------
                                   HORROR BIZ - Samhain
    -------------------------------------------------------------------------------
    
    
    
    Intro
    e|-----|---------|
    B|-----|---------|
    G|-----|---------|
    D|-----|---------|
    A|-8-7-|-5-5-6-5-|
    E|-6-5-|-3-3-4-3-|
    
    Verse
    e|-----------------|
    B|-----------------|
    G|-----------------|
    D|-----------------|
    A|-5-5-6-5---------|
    E|-3-3-4-3-0000000-|
    pm         .......
    
    Chorus
    e|---------------------------------|
    B|---------------------------------|
    G|---------------------------------|
    D|-10-10-10-10---------------------|
    A|--8--8--8--8-10-10-10-10-8-8-8-8-|
    E|--------------8--8--8--8-6-6-6-6-|
    
    Whole Verse
    
    Chorus 2:
    e|--------------|
    B|--------------|
    G|-10-----------|
    D|-10-------10--|
    A|--8--10-8-8---|
    E|-----8--6-----|
    
      solo:
    E|-13----------------------------------------------------------------|
    B|----8-6-8--6-6-6-8-8-8-11-11-11-13-13-13---------------------------|
    G|-----------------------------------------12-14-(trill these notes)-|
    D|-------------------------------------------------------------------|
    A|-------------------------------------------------------------------|
    E|-------------------------------------------------------------------|
     

    Тональность:

    Нет текста!



    Назад
    Рекомендуем посмотреть другие песни исполнителя «Samhain»:

    • Комментарии Facebook ()
    • Комментарии ВКонтакте



    Добавить в Избранное Браузера
    Сохранить здесь Очистить


    x

    0


    +
    -

    +
    -

    -

    Авторизация





    Зарегистрироваться

    M

    Дата и время

    • 14:36:15
       

    Социальные ссылки


    Наши приложения

    • Muzbank App Play Market
    • Muzbank Amazon App