MUZBANK



A Most Complete Bank Of Music Information

МУЗЫКАЛЬНО-ИНФОРМАЦИОННЫЙ БАНК

Поиск по сайту







    SSantana Carlos • Aqua Marine (аккорды и текст - chords & lyrics)


    255

    Print

    Видео «Aqua Marine (Santana Carlos)»

    Видео клипы к песне подбираются автоматически сайтом youtube. Возможны некоторые несоответствия клипов песне.

    ↑ Спрятать рекламу ↑



    Download



     
    
    
    Song Title: Aqua Marine
    Arstist/Band: Santana
    Album: Marathon, 1979.
    
    Tab by JC Rea(Jcrp_21@hotmail.com)
    
    Symbols:
    
    h=hammer-on
    p=pull-off
    /=slide-up
    =slide-down
    ~=left hand vibrato
    b=bend
    r=release bend
    
    INTRO:
    
    e|---------0--------------|
    B|-------0---0---7---7----|
    G|-----7-------7---7------|
    D|---5--------------------|
    A|-7----------------------|
    E|------------------------|
      0:00
    
    RIFF:
    
    e|-------12-14-15p14-----------------|-------12-14-15p14---------------------|
    B|-12-15-------------15-15-12-15-12--|-12-15--------------15-15-12-15/17-12--|
    G|-----------------------------------|---------------------------------------|
    D|-----------------------------------|---------------------------------------|
    A|-----------------------------------|---------------------------------------|
    E|-----------------------------------|---------------------------------------|
      0:39
    
    CHORDS:
    
      Am  Bm  B#m  Bm    Am  Bm  B#m  Bm
    e|-5---7---8----7---|-5---7---8----7---|
    B|-5---7---8----7---|-5---7---8----7---|
    G|-5---7---8----7---|-5---7---8----7---|
    D|-7---9---10---9---|-7---9---10---9---|
    A|-7---9---10---9---|-7---9---10---9---|
    E|-5---7---8----7---|-5---7---8----7---|
      0:56
    
      Em                      
    e|-2-2--2-2----2---0----|-2------2---------2----0------|
    B|-0-0--0-0----0---0----|---0------0-------0----0------|
    G|-0-0--0-0----0---0----|-----0------0-----0----0------|
    D|-2-2--2-2----2---2----|------------------2----2------|
    A|-2-2--2-2----2---2----|------------------2----2------|
    E|-0-0--0-0----0---0----|------------------0----0------|
      1:14                   1:24
    
    
    SOLO:
    
    e|----------------------|-----------------------|
    B|----------------------|-----------------------|
    G|----------------------|-----------------------|
    D|------------5---------|-----------------------|
    A|-5h7----5h7---5h7-----|-----------------------|
    E|----------------------|-3h5/7--3/53--0-------|
      1:46
    
    e|---------------|---------------------|
    B|---------------|-----8---------------|
    G|-9-7b9r7p4-----|-7h9---7b9r7p4-------|
    D|---------------|---------------------|
    A|---------------|---------------------|
    E|---------------|---------------------|
      1:58
    
    e|---------------------------------------------|
    B|---------------------------------------------|
    G|-7/9-9--9-7-----7----------------------------|
    D|-------------9-----9-7--5-7-7--7/97--5h7p5--|
    A|---------------------------------------------|
    E|---------------------------------------------|
      2:06
    
    e|----------------------------------10/12-12-10----12-10/12-10-----|
    B|-----8---8---8---8---8---8---8-12-------------12-------------12--|
    G|-7-9---9---9---9---9---9---9-------------------------------------|
    D|-----------------------------------------------------------------|
    A|-----------------------------------------------------------------|
    E|-----------------------------------------------------------------|
      2:10
    
    e|---------------------|
    B|-10/12-12-10-8-------|
    G|----------------9----|
    D|---------------------|
    A|---------------------|
    E|---------------------|
      2:19
    
    
    e|----------------------------------|
    B|----------------------------------|
    G|-7-9p7-9-9--7-9p7-9-9--7-9p7-9-9--|
    D|----------------------------------|
    A|----------------------------------|
    E|----------------------------------|
      2:21
    
    e|--------------------------12-14-12----------17~17~17~17~17~-|
    B|----------7-8-10-12-13-15----------15p14-14-----------------|
    G|--7-9p7-9---------------------------------------------------|
    D|------------------------------------------------------------|
    A|------------------------------------------------------------|
    E|------------------------------------------------------------|
    
    
    e|-14--15--17/19--17--1514---|-10/12p10-----------|
    B|----------------------------|-----------12-------|
    G|----------------------------|--------------------|
    D|----------------------------|--------------------|
    A|----------------------------|--------------------|
    E|----------------------------|--------------------|
      2:30
    
    e|-10h12-15-12--12-10/12--12-10/12--12-10/12--12-10/12-12--|
    B|---------------------------------------------------------|
    G|---------------------------------------------------------|
    D|---------------------------------------------------------|
    A|---------------------------------------------------------|
    E|---------------------------------------------------------|
      2:35
    
    e|-12-10-------------------------------------------------------|
    B|-------12---15p12--10----10-12---10----10/1210----10/12-----|
    G|----------------------12------------12----------12-------12--|
    D|-------------------------------------------------------------|
    A|-------------------------------------------------------------|
    E|-------------------------------------------------------------|
      
    CHORDS DURING FLUTE SOLO:
    
        Bm      F#m
    e|---2---|---2----|
    B|---3---|---2----|
    G|---4---|---2----|
    D|---4---|---4----|
    A|---2---|---4----|
    E|---2---|---2----|
      2:41
    
    And then:
    
      Am  Bm  B#m  Bm    Am  Bm  B#m  Bm
    e|-5---7---8----7---|-5---7---8----7---|
    B|-5---7---8----7---|-5---7---8----7---|
    G|-5---7---8----7---|-5---7---8----7---|
    D|-7---9---10---9---|-7---9---10---9---|
    A|-7---9---10---9---|-7---9---10---9---|
    E|-5---7---8----7---|-5---7---8----7---|
      3:35
    
      Em                      
    e|-2-2--2-2----2---0----|-2------2---------2----0------|
    B|-0-0--0-0----0---0----|---0------0-------0----0------|
    G|-0-0--0-0----0---0----|-----0------0-----0----0------|
    D|-2-2--2-2----2---2----|------------------2----2------|
    A|-2-2--2-2----2---2----|------------------2----2------|
    E|-0-0--0-0----0---0----|------------------0----0------|
      3:55                   4:05  
    
    FINAL PART:
    
    e|---------0--------------|---------0----0-----------|
    B|-------0-----7-7----7---|-------0--------7-----7---|
    G|-----7-----7------7-----|-----7-----7-------7------|
    D|---5--------------------|---5----------------------|
    A|-7----------------------|-7------------------------|
    E|------------------------|--------------------------|
      4:12
    
    e|-14h15p14-----------------|-14h15p14-------------12-----|
    B|----------15-15-12-15-12--|----------15-15-12-15----12--|
    G|--------------------------|-----------------------------|
    D|--------------------------|-----------------------------|
    A|--------------------------|-----------------------------|
    E|--------------------------|-----------------------------|
      4:17
    
    e|-------12-14-15p14-----------------|-------12-14-15p14---------------------|
    B|-12-15-------------15-15-12-15-12--|-12-15--------------15-15-12-15/17-12--|
    G|-----------------------------------|---------------------------------------|
    D|-----------------------------------|---------------------------------------|
    A|-----------------------------------|---------------------------------------|
    E|-----------------------------------|---------------------------------------|
      4:34
    
    e|-14h15p14--10h12p10--|-------------------------------------------------------|
    B|---------------------|-12-12-10h12-12--10h12-12--10h12-12--10h12-12-10h12-12-|
    G|---------------------|-------------------------------------------------------|
    D|---------------------|-------------------------------------------------------|
    A|---------------------|-------------------------------------------------------|
    E|---------------------|-------------------------------------------------------|
      4:51
    
    e|------------------------------------|-----------------------|
    B|------------------------------------|-----------------------|
    G|------------------------------------|-----------------------|
    D|------------------------------------|-----------------------|
    A|-7---5------7---5-----7---5---5-7---|--12-------------------|
    E|---5---5------5---5-----5---5-------|-----------------------| . . . END
      5:01                                     5:07
    
    
    
    Comments: jcrp_21@hotmail.com
     

    Тональность:

    Нет текста!



    Назад
    Рекомендуем посмотреть другие песни исполнителя «Santana Carlos»:

    • Комментарии Facebook ()
    • Комментарии ВКонтакте



    Добавить в Избранное Браузера
    Сохранить здесь Очистить


    x

    0


    +
    -

    +
    -

    -

    Авторизация





    Зарегистрироваться

    M

    Дата и время

    • 17:28:10
       

    Социальные ссылки


    Наши приложения

    • Muzbank App Play Market
    • Muzbank Amazon App