MUZBANK



A Most Complete Bank Of Music Information

МУЗЫКАЛЬНО-ИНФОРМАЦИОННЫЙ БАНК

Поиск по сайту







    SSantana Carlos • Esperando (аккорды и текст - chords & lyrics)


    206

    Print

    Видео «Esperando (Santana Carlos)»

    Видео клипы к песне подбираются автоматически сайтом youtube. Возможны некоторые несоответствия клипов песне.

    ↑ Спрятать рекламу ↑



    Download


     
    
    
    Song Title: Esperando
    Artist/Band: Santana
    Album: Sacred Fire--Live in South America, 1993.
    
    Tab by JC Rea(jcrp_21@hotmail.com)--
    
    Symbols:
    
    h=hammer-on
    p=pull-off
    /=slide-up
    =slide-down
    b=bend
    r=release bend
    []=bend before picking
    ~=Left hand vibrato   
    ///=tremolo picking
                       
    CHORDS FOR INTRO:
    
    Am:577555
    Em:022000
    
    1st SOLO:
    e|-------------------------|
    B|-12-13-12----10----------|
    G|----------12-----7/9-7--|
    D|-------------------------|
    A|-------------------------|
    E|-------------------------|
    
    e|----------------------[10]b12r10b12---10-12-15-12-10-----------|
    B|-12-12-13-12----10-----------------------------------13-12h13--|
    G|-------------12------------------------------------------------|
    D|---------------------------------------------------------------|
    A|---------------------------------------------------------------|
    E|---------------------------------------------------------------|
    
    e|----------------------------------|
    B|-12-13-12----10-------------------|
    G|----------12------7/9--9--7----7--|
    D|----------------------------10----|
    A|----------------------------------|
    E|----------------------------------|
    
    e|------------------------------------------|
    B|-12-13-15-13-12----12-13p12-10----10~~~---|
    G|----------------12-------------12---------|
    D|------------------------------------------|
    A|------------------------------------------|
    E|------------------------------------------|
    
    e|-------15-12-10-12-10--------|
    B|-10-13----------------13-12--|
    G|-----------------------------|
    D|-----------------------------|
    A|-----------------------------|
    E|-----------------------------|
    
    e|----------------|------12h13p12h13p12--|
    B|-8-8/10~~~p8----|-8-10-----------------|
    G|-------------9--|----------------------|
    D|----------------|----------------------|
    A|----------------|----------------------|
    E|----------------|----------------------|
    
    e|-------------------------------------------|
    B|-10--12-13p12h13p12h13p12h13--13-13p12h13--|
    G|-------------------------------------------|
    D|-------------------------------------------|
    A|-------------------------------------------|
    E|-------------------------------------------|
    
    e|-10p8h10p8h10p8h108h10--|
    B|------------------------|
    G|------------------------|
    D|------------------------|
    A|------------------------|
    E|------------------------|
    
    e|-8-10--8h10p8h10p8h10p8h10p8h10p8h10p8h10--|
    B|-------------------------------------------|
    G|-------------------------------------------|
    D|-------------------------------------------|
    A|-------------------------------------------|
    E|-------------------------------------------|
    
    e|----15-19----[19]b20r19b20-17-----------------|
    B|-17-------17------------------17-18p17-13-15--|
    G|----------------------------------------------|
    D|----------------------------------------------|
    A|----------------------------------------------|
    E|----------------------------------------------|
    
    e|-----------------------------------|
    B|-12-12-13-13-8/10~~~---------------|
    G|---------------------7/9~~~-7h9-7--|
    D|-----------------------------------|
    A|-----------------------------------|
    E|-----------------------------------|
    
    e|---------------------|-------------------------------|
    B|---8----13-12--------|-------1312-10------1312-10--|
    G|-9---9--------12b14--|-12--9----------12-9-----------|
    D|---------------------|-------------------------------|
    A|---------------------|-------------------------------|
    E|---------------------|-------------------------------|
    
    e|--------------------------|
    B|-[13]b15--12-13-12-13-12--|
    G|--------------------------|
    D|--------------------------|
    A|--------------------------|
    E|--------------------------|
    
    e|-10/12///----10-12-13-12----10-12--|
    B|----------13-------------13--------|
    G|-----------------------------------|
    D|-----------------------------------|
    A|-----------------------------------|
    E|-----------------------------------|
    
    e|-12-17~---12-17-12--17~--17-17--12-12-10-10----10/12-10-10----10--|
    B|--------------------------------------------13-------------13-----|
    G|------------------------------------------------------------------|
    D|------------------------------------------------------------------|
    A|------------------------------------------------------------------|
    E|------------------------------------------------------------------|
    
    e|-17-17-20p19h20p19h20p19h20p19h20p19h20p19h20p19h20--|
    B|-----------------------------------------------------|
    G|-----------------------------------------------------|
    D|-----------------------------------------------------|
    A|-----------------------------------------------------|
    E|-----------------------------------------------------|
    
    e|-20/22-20-19-20-19-15/17-17-17--|
    B|--------------------------------|
    G|--------------------------------|
    D|--------------------------------|
    A|--------------------------------|
    E|--------------------------------|
    
    e|-----------------------------------------------|
    B|-17-17-17-17-17--15/17-17--15/17-17--15/17-17--|
    G|-----------------------------------------------|
    D|-----------------------------------------------|
    A|-----------------------------------------------|
    E|-----------------------------------------------|
    
    e|--------------------------------------------------------------------------------|
    B|-15/17-17--15/17-17--15/17-17--15/17--17-17-17-17--17-17-17--17-17-17-17-17-17--|
    G|--------------------------------------------------------------------------------|
    D|--------------------------------------------------------------------------------|
    A|--------------------------------------------------------------------------------|
    E|--------------------------------------------------------------------------------|
    
    e|-12/17-17-12-17-12-17-12-17--|
    B|-----------------------------|
    G|-----------------------------|
    D|-----------------------------|
    A|-----------------------------|
    E|-----------------------------|
    
    e|-------------------------------|
    B|-13-13-13-13-13-13--13-13-13--|
    G|-------------------------------|
    D|-------------------------------|
    A|-------------------------------|
    E|-------------------------------|
    
    2nd SOLO:
    e|-13-12-------12-13-12-------10-12-10~~~--|
    B|-------13-10----------13-10--------------|
    G|-----------------------------------------|
    D|-----------------------------------------|
    A|-----------------------------------------|
    E|-----------------------------------------|
    
    e|----10-------10--------10----10-----|
    B|-10----13-10----13-10-----13----10--|
    G|------------------------------------|
    D|------------------------------------|
    A|------------------------------------|
    E|------------------------------------|
    
    e|-12/13-12-------12-13-12-----|
    B|----------13-10----------13--|
    G|-----------------------------|
    D|-----------------------------|
    A|-----------------------------|
    E|-----------------------------|
    
    e|-13/15///-----------|
    B|----------13/15~~~--|
    G|--------------------|
    D|--------------------|
    A|--------------------|
    E|--------------------|
    
    e|-------------------------------|
    B|-13p12-10--13p12-10--13p12-10--|
    G|-------------------------------|
    D|-------------------------------|
    A|-------------------------------|
    E|-------------------------------|
    
    e|------------------------|
    B|-10-12-13-12-8----------|
    G|---------------7-7/9-7--|
    D|------------------------|
    A|------------------------|
    E|------------------------|
    
    e|--------------------------------------------|
    B|---------8/10-10-10--12-12-12--12/13-13-13--|
    G|-7/9-9-9------------------------------------|
    D|--------------------------------------------|
    A|--------------------------------------------|
    E|--------------------------------------------|
    
    e|--------------------------------------|
    B|-15h17--13p12--13p12--13p12-13-12~~~--|
    G|--------------------------------------|
    D|--------------------------------------|
    A|--------------------------------------|
    E|--------------------------------------|
    
    e|-------------------------|-------------------10----------|
    B|-10-12-13-12-10-13~~~10--|----10-12-10----12----10-------|
    G|-------------------------|-12----------12----------12-9--|
    D|-------------------------|-------------------------------|
    A|-------------------------|-------------------------------|
    E|-------------------------|-------------------------------|
    
    e|----10-12-10-----------------|----------------------------|
    B|-13----------10--10-12-8h10--|----10-12-10----10----------|
    G|-----------------------------|-12----------12----12p9-12--|
    D|-----------------------------|----------------------------|
    A|-----------------------------|----------------------------|
    E|-----------------------------|----------------------------|
    
    e|------------------|------------------|
    B|------------------|------------------|
    G|-5-7-9-7-5-7/9-5--|-4h5p4------------|
    D|------------------|-------7-5-5/7-5--|
    A|------------------|------------------|
    E|------------------|------------------|
    
    e|------------------------|----------------5-5--7-8~~~--|
    B|-----5-6-5---5-8-10~~~--|-----5-6-6--8-8--------------|
    G|-5-7-------7------------|-5-7-------------------------|
    D|------------------------|-----------------------------|
    A|------------------------|-----------------------------|
    E|------------------------|-----------------------------|
    
    e|-10-10-10-10-10-10-10-10--8-8--|
    B|-------------------------------|
    G|-------------------------------|
    D|-------------------------------|
    A|-------------------------------|
    E|-------------------------------|
    
    e|---------------------------------|
    B|-10-10-10-10-10-10--12-12-13p12--|
    G|---------------------------------|
    D|---------------------------------|
    A|---------------------------------|
    E|---------------------------------|
    
    e|----------17-17-1715-15-1512-12-1210--|
    B|-----------------------------------------|
    G|-14-14-14--------------------------------|
    D|-----------------------------------------|
    A|-----------------------------------------|
    E|-----------------------------------------|
    
    e|-10-108-7-7--|
    B|--------------|
    G|--------------|
    D|--------------|
    A|--------------|
    E|--------------|
    
    e|-------------------12-10--|
    B|-12-13-12----10~~~--------|
    G|----------12--------------|
    D|--------------------------|
    A|--------------------------|
    E|--------------------------|
    
    e|------------------------------|
    B|-12-13-12----10-----8---------|
    G|----------12----7/9---9-9--7--|
    D|------------------------------|
    A|------------------------------|
    E|------------------------------|
    
    e|-------------------------------------------|
    B|-12-13--15-13-12----1312-10--1312-10-12--|
    G|-----------------12------------------------|
    D|-------------------------------------------|
    A|-------------------------------------------|
    E|-------------------------------------------|
    
    e|------------------|
    B|-8-8-8--10-10-10--|
    G|------------------|
    D|------------------|
    A|------------------|
    E|------------------|
    
    e|-----------------------------|
    B|-----------------------------|
    G|-9-9-9--5-5-5--7-7-7--4-4-4--|
    D|-----------------------------|
    A|-----------------------------|
    E|-----------------------------|
    
    
    e|------------|------------------|
    B|------------|------------------|
    G|------9~~~--|-9-7--5h7--7-5----|
    D|-8/10-------|---------------7--|
    A|------------|------------------|
    E|------------|------------------|
    
    e|------------12--17--19--1513--|
    B|------8--10--------------------|
    G|----9--------------------------|
    D|-10----------------------------|
    A|-------------------------------|
    E|-------------------------------|
    
    e|-----------------------------|
    B|-13-12-13-12--12h13--10------|
    G|------------------------7/9--|
    D|-----------------------------|
    A|-----------------------------|
    E|-----------------------------|
    
    e|-----------------------|--------------------|
    B|-10-12-13-12-10-13-10--|----10-12-10----12--|
    G|-----------------------|-12----------12-----|
    D|-----------------------|--------------------|
    A|-----------------------|--------------------|
    E|-----------------------|--------------------|
    
    
    e|----------------12-8--|-7-8-10-8-7--10~~~--|
    B|-10-12-13-12-10-------|--------------------|
    G|----------------------|--------------------|
    D|----------------------|--------------------|
    A|----------------------|--------------------|
    E|----------------------|--------------------|
    
    e|-8-10-12-10-8--12-8--|-7-8--10-8-7--10--|
    B|---------------------|------------------|
    G|---------------------|------------------|
    D|---------------------|------------------|
    A|---------------------|------------------|
    E|---------------------|------------------|
    
    e|----------------15-12--------|
    B|-10-12-13-12-10-------13-12--|
    G|-----------------------------|
    D|-----------------------------|
    A|-----------------------------|
    E|-----------------------------|
    
    e|----------------------------------------|
    B|----------------------------------------|
    G|-9-10-9--5-7-5--------------------------|
    D|---------------7-5-7-5------------------|
    A|-----------------------8-7-8-7-5-3-5-3--|
    E|----------------------------------------|
    
    e|---------------|
    B|---------------|
    G|---------------|
    D|---------------|
    A|-0---0---------|
    E|---3---3--1-0--|. . . END
    
    
    Comments:jcrp_21@hotmail.com
     

    Тональность:

    Нет текста!



    Назад
    Рекомендуем посмотреть другие песни исполнителя «Santana Carlos»:

    • Комментарии Facebook ()
    • Комментарии ВКонтакте



    Добавить в Избранное Браузера
    Сохранить здесь Очистить


    x

    0


    +
    -

    +
    -

    -

    Авторизация





    Зарегистрироваться

    M

    Дата и время

    • 07:10:29
       

    Социальные ссылки


    Наши приложения

    • Muzbank App Play Market
    • Muzbank Amazon App