MUZBANK



A Most Complete Bank Of Music Information

МУЗЫКАЛЬНО-ИНФОРМАЦИОННЫЙ БАНК








    SSantana Carlos • Stone Flower Live (аккорды и текст - chords & lyrics)


    257

    Print

    Видео «Stone Flower Live (Santana Carlos)»

    Видео клипы к песне подбираются автоматически сайтом youtube. Возможны некоторые несоответствия клипов песне.

    ↑ Спрятать рекламу ↑



    Download


     
    
    
    Song Title: Stone Flower(Live)
    Artist/Band: Santana
    Album: Lotus
    
    Tab by JC Rea(jcrp_21@hotmail.com)
    
    Symbols:
    
    /=slide-up
    
    Tuning: Standard
    
    e|--8--8--8----8--8--8----8--8---(10)--|
    B|--8--8--8----8--8--8----8--8---(10)--|
    G|--9--9--9----9--9--9----9--9---(11)--|
    D|-10-10-10---10-10-10---10-10---(12)--|
    A|-10-10-10---10-10-10---10-10---(12)--|
    E|-------------------------------------|
      0:00
    
    e|-------10--------10----------10-------10---------10--(10)--|
    B|----10----10--------10----10----10-------10----------(10)--|
    G|-------------11--------11-------------------11-------(11)--|
    D|-12--------------------------------------------------(12)--|
    A|-----------------------------------------------------(12)--|
    E|------------------------------------------------------------|
      0:06
    
    (Tabbed for guitar)---Guitar chords during this part:
                                                   -DMaj:101212111010
                                                   -EMaj:121414131212
    
    e|-17-22-17----16--------|-17-22-17----16--------|-17-22-17----16--------|
    B|----------19----17-15--|----------19----17-12--|----------19----17-15--|
    G|-----------------------|-----------------------|-----------------------|
    D|-----------------------|-----------------------|-----------------------|
    A|-----------------------|-----------------------|-----------------------|
    E|-----------------------|-----------------------|-----------------------|(x6)
      0:11
    
    And then:
    e|-10-10-10---10-10-10---10-10---(12)--|
    B|-10-10-10---10-10-10---10-10---(12)--|
    G|-11-11-11---11-11-11---11-11---(13)--|
    D|-12-12-12---12-12-12---12-12---(14)--|
    A|-12-12-12---12-12-12---12-12---(14)--|
    E|-------------------------------------|
      1:08
    
    e|------10------8---------8------8--|
    B|-8/10----10-8---8--8/10---10-8----|
    G|----------------------------------|
    D|----------------------------------|
    A|----------------------------------|
    E|----------------------------------|. . . END
    
    
    Comments:jcrp_21@hotmail.com
     

    Тональность:

    Нашли ошибку?



    Назад
    Рекомендуем посмотреть другие песни исполнителя «Santana Carlos»:

    • Комменты Fb ()
    • Комменты ВК



    Добавить в Избранное Браузера
    Сохранить здесь Очистить


    x

    0


    +
    -

    +
    -

    -

    Авторизация





    Зарегистрироваться

    M

    Дата и время

    • 16:13:45
       

    Социальные ссылки


    Наши приложения

    • Muzbank App Play Market
    • Muzbank Amazon App