MUZBANK



A Most Complete Bank Of Music Information

МУЗЫКАЛЬНО-ИНФОРМАЦИОННЫЙ БАНК

Поиск по сайту







    SSantos Paolo • Angel (аккорды и текст - chords & lyrics)


    255

    Print

    Видео «Angel (Santos Paolo)»

    Видео клипы к песне подбираются автоматически сайтом youtube. Возможны некоторые несоответствия клипов песне.

    ↑ Спрятать рекламу ↑



    Download


     
    
    
    ANGEL
    Paolo Santos
    
    johnsantos_17@yahoo.com
    
    standard tuning: (EADGBE)
    
    Intro:
    
    E------------
    B-6--2--6--2-
    G-6--3--6--3-
    D-6--4--6--4-
    A-4--4--4--4-
    E----2-----2-
    
    Verse:
    
    E----2--------
    B-7--2--6--4--
    G-6--3--6--5--
    D-8--4--6--6--play 2x
    A-6--4--4--6--
    E----2-----4--
    
    Chorus:
    
    E----1--2-----4-
    B-6--1--2--6--4-
    G-6--1--3--6--5-
    D-6--3--4--6--6-
    A-4--3--4--4--6-play 2x
    E----1--2-----4-
    
    Adlib:
    
    E------------
    B-6--2--6--2-
    G-6--3--6--3-
    D-6--4--6--4-
    A-4--4--4--4-
    E----2-----2-
    
    =====()w&_17=====
     

    Тональность:

    Нет текста!



    Назад
    Рекомендуем посмотреть другие песни исполнителя «Santos Paolo»:

    • Комментарии Facebook ()
    • Комментарии ВКонтакте



    Добавить в Избранное Браузера
    Сохранить здесь Очистить


    x

    0


    +
    -

    +
    -

    -

    Авторизация





    Зарегистрироваться

    M

    Дата и время

    • 02:20:24
       

    Социальные ссылки


    Наши приложения

    • Muzbank App Play Market
    • Muzbank Amazon App