MUZBANK



A Most Complete Bank Of Music Information

МУЗЫКАЛЬНО-ИНФОРМАЦИОННЫЙ БАНК

Поиск по сайту







    SSantos Paolo • Change The World (аккорды и текст - chords & lyrics)


    208

    Print

    Видео «Change The World (Santos Paolo)»

    Видео клипы к песне подбираются автоматически сайтом youtube. Возможны некоторые несоответствия клипов песне.

    ↑ Спрятать рекламу ↑



    Download


     
    
    
    CHANGE THE WORLD
    Paolo Santos
    
    johnsantos_17@yahoo.com
    
    standard tuning: (EADGBE)
    
    Intro:
    
    E-----------0-|----------------
    B---1-----0---|-0-0------------
    G-------2-----|-----1-2-2-1----
    D-----2-2-----|----------------
    A---2---------|-2-2---2-2------
    E-0-------0---|-----------0----
    
    Verse:
    
    E---------|        -0--0--0-
    B-0--0--0-|        -2--3--2-
    G-1--2--1-|        -2--2--2-
    D-2--2--2-|play 4x -2--2--2-play 2x
    A-2--2--2-|        -0--0--0-
    E-0--0--0-|        ---------
    
    E---------|-------4-4-
    B-0--0--0-|-0--0--4-4-
    G-1--2--1-|-1--2--4-4-
    D-2--2--2-|-2--2--6-4-
    A-2--2--2-|-2--2--6-6-
    E-0--0--0-|-0--0--4-4-
    
    Chorus:
    
    E-0--4--4---2--4--4-
    B-2--4--5---2--4--5-
    G-2--4--4---2--4--4-
    D-2--4--6---2--4--6-
    A-0--6--4---4--6--4-
    E----4------2--4----
    
    E-2--4--4322--|-0--4--432-|----
    B-2--4--5432--|-2--4--432-|-4--
    G-2--4--4322--|-2--4--432-|-4--
    D-2--4--6544--|-2--4--434-|-4--
    A-4--6--4322--|-0--6--654-|-2--
    E-2--4-----------|----4--432-|----
    
    Adlib:
    
    
    E-----------0-|----------------
    B---1-----0---|-0-0------------
    G-------2-----|-----1-2-2-1----
    D-----2-2-----|----------------
    A---2---------|-2-2---2-2------
    E-0-------0---|-----------0----
    
    2nd chorus:
    
    E-0--4--4---2--4--4----
    B-2--4--5---2--4--5----
    G-2--4--4---2--4--4----
    D-2--4--6---2--4--6----
    A-0--6--4---4--6--4----
    E----4------2--4-------
    
    E-2--4--4322--|-0--4--432-|----
    B-2--4--5432--|-2--4--432-|-0--
    G-2--4--4322--|-2--4--432-|-1--
    D-2--4--6544--|-2--4--434-|-2--
    A-4--6--4322--|-0--6--654-|-2--
    E-2--4-----------|----4--432-|-0--
    
    =====()w&_17=====
     

    Тональность:

    Нет текста!



    Назад
    Рекомендуем посмотреть другие песни исполнителя «Santos Paolo»:

    • Комментарии Facebook ()
    • Комментарии ВКонтакте



    Добавить в Избранное Браузера
    Сохранить здесь Очистить


    x

    0


    +
    -

    +
    -

    -

    Авторизация





    Зарегистрироваться

    M

    Дата и время

    • 07:17:30
       

    Социальные ссылки


    Наши приложения

    • Muzbank App Play Market
    • Muzbank Amazon App