MUZBANK



A Most Complete Bank Of Music Information

МУЗЫКАЛЬНО-ИНФОРМАЦИОННЫЙ БАНК

Поиск по сайту







    SSantos Paolo • In My Life (аккорды и текст - chords & lyrics)


    210

    Print

    Видео «In My Life (Santos Paolo)»

    Видео клипы к песне подбираются автоматически сайтом youtube. Возможны некоторые несоответствия клипов песне.

    ↑ Спрятать рекламу ↑



    Download


     
    
    
    IN MY LIFE
    Paolo Santos
    johnsantos_17@yahoo.com
    Standard tuning: (EADGBE)
    
    Intro:
    
    E-----5---------4---4-
    B-2------2-3-5--5-5---
    G---2-----------------
    D--------------------- play 2x
    A-0------0------------
    E---------------0-----
    
    Verse:
    
    E----0-----0----2--1----
    B-0--0--0--2----3--3--2- plucking
    G-2--2--2--2----2--2--2- 
    D-2--2--2-------0--0--2- play 2x
    A-0-------------------0-
    E----4--2--0------------
    
    E-2--2--2--1-----
    B-2--2--3--3--2-- plucking
    G-2--2--2--2--2-- 
    D-2--4--0--0--2-- play 2x
    A-4--2--------0--
    E-2--------------
    
    Adlib:
    
    E----0-----0----2--1----
    B-0--0--0--2----3--3--2- plucking
    G-2--2--2--2----2--2--2- 
    D-2--2--2-------0--0--2- play 2x
    A-0-------------------0-
    E----4--2--0------------
    
    Outro:
    
    E-----5------------4--|----1--------
    B-2------2-3-5-5------|---3-----2---
    G---2------------2----|--2-----2----
    D---------------------|-0-----2-----
    A-0------0------------|------0------
    E--------------0------|-------------
    
    E----5---------4-|--------5-------
    B-2------2-3-5-5-|--2-4-5-2-------
    G---2------------|--------2-------
    D----------------|--2-----2-------
    A-0------0-------|--------0-------
    E--------------0-|----------------
    
    =====()w&_17=====
     

    Тональность:

    Нет текста!



    Назад
    Рекомендуем посмотреть другие песни исполнителя «Santos Paolo»:

    • Комментарии Facebook ()
    • Комментарии ВКонтакте



    Добавить в Избранное Браузера
    Сохранить здесь Очистить


    x

    0


    +
    -

    +
    -

    -

    Авторизация





    Зарегистрироваться

    M

    Дата и время

    • 21:22:51
       

    Социальные ссылки


    Наши приложения

    • Muzbank App Play Market
    • Muzbank Amazon App