MUZBANK



A Most Complete Bank Of Music Information

МУЗЫКАЛЬНО-ИНФОРМАЦИОННЫЙ БАНК

Поиск по сайту







    SSatriani Joe • Baroque (аккорды и текст - chords & lyrics)


    229

    Print

    Видео «Baroque (Satriani Joe)»

    Видео клипы к песне подбираются автоматически сайтом youtube. Возможны некоторые несоответствия клипов песне.

    ↑ Спрятать рекламу ↑



    Download



    E|-----------------------------------|-------------------|------------------
    B|-----------------------------------|-------------------|------------------
    G|--12-------------------------------|-(12)--------------|--12--------------
    D|-----------------------------------|-------------------|------------------
    A|--10--10--10--10---10--10--10--10--|--8--8--8--8---10--|--10--10--10--10--
    E|-----------------------------------|-------------------|------------------
    
    
    E------------------|-------------------|-------------------|---------------
    B------------------|-------------------|-------------------|---------------
    G------------------|-(12)--------------|---------------15--|--14--15---12--
    D------------------|-------------------|--12--10---12--12--|--15--15-------
    A--10--10--10--10--|--8--8--8--8---10--|--10--12---13------|---------------
    E------------------|-------------------|-------------------|-----------11--
    
    
    E--------------|-------------------|---------------|-------------------|
    B--------------|-------------------|------13-------|-------------------|
    G--------------|---------------15--|--14-----------|---------------15--|
    D--15----------|--12--10---12--12--|--15--15---17--|--12--10---12--12--|
    A------13------|--10--12---13------|-----------15--|--10--12---13------|
    E----------11--|-------------------|-----------13--|-------------------|
    
    ~trill
    E|---------------------------|-------------------|-----------------|-|
    B|---------------------------|--16--15---13------|--13(15)---------|-|
    G|--14--15---12--------------|---------------15--|---------15--15--|-|
    D|--15--15-------15----------|-------------------|-----------------|-|
    A|-------------------13------|--15-----------13--|---------13--13--|-|
    E|-----------11----------11--|------15---13------|--13-------------|-|
    
    
    E|----------------|------------------------|----------------|--------------|
    B|----------------|------------------------|----------------|------8-------|
    G|------------10--|--9---10---7------------|------------10--|--9-----------|
    D|--7--5---7--7---|--10--10------10--------|--7--5---7--7---|--10--10---12-|
    A|--5--7---8------|------------------8-----|--5--7---8------|-----------10-|
    E|----------------|-----------6---------6--|----------------|-----------8--|
    
    ~trill
    E|----------------|------------------------|----------------|-|
    B|----------------|------------------------|--8(10)---------|-|
    G|------------10--|--9---10---7------------|--------10--10--|-|
    D|--7--5---7--7---|--10--10------10--------|----------------|-|
    A|--5--7---8------|------------------8-----|--------8---8---|-|
    E|----------------|-----------6---------6--|--8-------------|-|
    
    let ring----] let ring-] let ring--]
    E|------------------|----------------------------|-------------------------|
    B|--15--13---10--8--|------9---------------------|-----------------4-------|
    G|--12--------------|--12-----12-----------------|-----------1--------7----|
    D|------14---12--9--|-------------10--10/12--10--|--------5--------------8-|
    A|------------------|----------------------------|-----3-------------------|
    E|------------------|-----------------11/13--11--|--1-----------4----------|
    
    
    E|-------------------------|------11-------------------|------8------------
    B|--6--8--6--8-------------|--15----------11-------18--|--11---------------
    G|-------------------------|---------------------------|-------------8-----
    D|-----------5---7--9--12--|----------13------/17------|---------10-----15-
    A|-----6--8----------------|--15-----------------------|--11---------------
    E|--6----------------------|---------------------------|-------------------
    
    starting softly and getting louder
    E------|------11------11------11------11------11------11------11-----11--|
    B--11--|--15------15------13------11------15------15------13------11-----|
    G------|-----------------------------------------------------------------|
    D------|-----------------------------------------------------------------|
    A------|-----------------------------------------------------------------|
    E------|-----------------------------------------------------------------|
    
    
    E|------10------10------10------10------10------10------10------11--|
    B|--13------13------11------10------13------13------11------10------|
    G|------------------------------------------------------------------|
    D|------------------------------------------------------------------|
    A|------------------------------------------------------------------|
    E|------------------------------------------------------------------|
    
    
    E|------11------11------11------11------11------11------11------11--|
    B|--15------15------13------11------15------15------13------11------|
    G|------------------------------------------------------------------|
    D|------------------------------------------------------------------|
    A|------------------------------------------------------------------|
    E|------------------------------------------------------------------|
    
    E|------10------10------10------10------10------10------10------11--|
    B|--13------13------11------10------13------13------11------10------|
    G|------------------------------------------------------------------|
    D|------------------------------------------------------------------|
    A|------------------------------------------------------------------|
    E|------------------------------------------------------------------|
    let ring-----]
    E|--------------14--|-|
    B|--10------10------|-|
    G|------------------|-|
    D|------12----------|-|
    A|------------------|-|
    E|------------------|-|
    
    
    E|--15---------------|---------------------------|-------------------|
    B|-------------------|---------------------------|-------------------|
    G|---------------15--|--14--15---12--------------|---------------15--|
    D|------10---12--12--|--15--15-------15----------|--12--10---12--12--|
    A|--10--12---13------|-------------------13------|--10--12---13------|
    E|-------------------|-----------11----------11--|-------------------|
    
    
    E|---------------|-------------------|---------------------------|---------
    B|------13-------|-------------------|---------------------------|--16--15-
    G|--14-----------|---------------15--|--14--15---12--------------|---------
    D|--15--15---17--|--12--10---12--12--|--15--15-------15----------|---------
    A|-----------15--|--10--12---13------|-------------------13------|--15-----
    E|-----------13--|-------------------|-----------11----------11--|------15-
    
    ~trill
    E----------|-------------------------|----------------|--------------------
    B--13------|--13(15)-----------------|----------------|--------------------
    G------15--|---------15--15----------|------------10--|--/9---10---7-------
    D----------|------------------7--10--|--7--5---7--7---|--/10--10------10---
    A------13--|---------13--13---8--7---|--5--7---8------|--------------------
    E--13------|--13---------------------|----------------|------------6-------
    
    
    E--------|----------------|-----------------|----------------|-------------
    B--------|----------------|-------8---------|----------------|-------------
    G--------|------------10--|--/9-------------|------------10--|--/9---10----
    D--------|--7--5---7--7---|--/10--10---12---|--7--5---7--7---|--/10--10----
    A--8-----|--5--7---8------|------------10---|--5--7---8------|-------------
    E-----6--|----------------|------------8----|----------------|-------------
    
    ~trill
    E---------------|------------------|------------------------|--------------
    B---------------|--11--10---8------|--8(10)----------8--10--|--11--10---8--
    G--7------------|--------------10--|--------10--10----------|--------------
    D-----10--------|------------------|------------------------|--------------
    A---------8-----|--10----------8---|--------8---8----7--8---|--10----------
    E--6---------6--|------10---8------|--8---------------------|------10---8--
    
    ~trill ~trill
    E------|--------------------------|------------------|---------------------
    B------|--8(10)-----------15--13--|--11--10---8------|--8(10)----------8---
    G--10--|--------10--10------------|--------------10--|--------10--10-------
    D------|--------------------------|------------------|---------------------
    A--8---|--------8---8-----13--12--|--10----------8---|--------8---8----7---
    E------|--8-----------------------|------10---8------|--8------------------
    
    ~trill
    E------|------------------|----------------|------------|---------------|-|
    B--10--|--11--10---8--10--|--8(10)---------|------------|---------------|-|
    G------|------------------|------------10--|--10--------|----10-----10--|-|
    D------|------------------|----------------|------------|--8H10---8H10--|-|
    A--8---|--10----------8---|----------------|------------|----8------8---|-|
    E------|------10---8------|--8-------------|--6---------|---------------|-|
    

    Тональность:

    Нет текста!



    Назад
    Рекомендуем посмотреть другие песни исполнителя «Satriani Joe»:

    • Комментарии Facebook ()
    • Комментарии ВКонтакте



    Добавить в Избранное Браузера
    Сохранить здесь Очистить


    x

    0


    +
    -

    +
    -

    -

    Авторизация





    Зарегистрироваться

    M

    Дата и время

    • 13:47:20
       

    Социальные ссылки


    Наши приложения

    • Muzbank App Play Market
    • Muzbank Amazon App