MUZBANK



A Most Complete Bank Of Music Information

МУЗЫКАЛЬНО-ИНФОРМАЦИОННЫЙ БАНК

Поиск по сайту







    SSatriani Joe • Ceremony (аккорды и текст - chords & lyrics)


    266

    Print

    Видео «Ceremony (Satriani Joe)»

    Видео клипы к песне подбираются автоматически сайтом youtube. Возможны некоторые несоответствия клипов песне.

    ↑ Спрятать рекламу ↑



    Download


    E||--------------------------|---------------------|-------------------------|
    B||--------------------------|---------------------|-------------------------|
    G||--------------------------|---------------------|-------------------------|
    D||--6-----------6-----------|--6---------6--------|--6-----------6----------|
    A||--6--7--6-----6--7--6-----|--6--7------7--------|--6--7--6-----6--7--6----|
    E||-----------9-----------9--|---------------------|-----------9-----------9-|
    
    E|--------------------|--------------------------|--------------|
    B|--------------------|--------------------------|--------------|
    G|--------------------|--------------------------|--------------|
    D|-6--6------6--------|--6-----------6-----------|--6---------6-|
    A|-6--9------9--------|--6--7--6-----6--7--6-----|--6--7------7-|
    E|----7------7--------|-----------9-----------9--|--------------|
    
    E|-------------------------|---------------------|-------------------------|
    B|-------------------------|---------------------|-------------------------|
    G|-------------------------|-----4------4--------|-------------------------|
    D|-6--------6-----6--6--6--|--6--6------6--------|--6-----------6----------|
    A|-7--6--6-----6--4--4--4--|--4--2------2--------|--6--7--6-----6--7--6----|
    E|-------------------------|---------------------|-----------9-----------9-|
    
    E|--------------------|--------------------------|--------------|
    B|--------------------|--------------------------|--------------|
    G|--------------------|--------------------------|--------------|
    D|-6---------6--------|--6-----------6-----------|--6--6------6-|
    A|-6--7------7--------|--6--7--6-----6--7--6-----|--6--9------9-|
    E|--------------------|-----------9-----------9--|-----7------7-|
    
    E|-------------------------|---------------------|-------------------------|
    B|-------------------------|---------------------|-------------------------|
    G|-------------------------|---------------------|-------------------------|
    D|-6-----------6-----------|--6---------6--------|--6--------6-----6--6--6-|
    A|-6--7--6-----6--7--6-----|--6--7------7--------|--7--6--6-----6--4--4--4-|
    E|----------9-----------9--|---------------------|-------------------------|
    
    E|-------------|
    B|-------------|
    G|-------------|
    D|-6--4------4-|
    A|-4--2------2-|
    E|----0------0-|
    
    (Overdriven Guitar)
    
    E|-------------------------|---------------------|-------------------------|
    B|-------------------------|---------------------|-------------------------|
    G|-------------------------|---------------------|-------------------------|
    D|-------------2-----------|---------------------|--------------2----------|
    A|-2--4--4--4-----4--4--4--|--2--4------4~-------|--2--4--4--4-----4--4--4-|
    E|-------------------------|---------------------|-------------------------|
    
    E|----------------------|--------------------------|---------------|
    B|----------------------|--------------------------|---------------|
    G|----------------------|--------------------------|---------------|
    D|----------------------|--------------2-----------|---------------|
    A|-4--2------2----2--2--|--2--4--4--4-----4--4--4--|--2--4--4----4-|
    E|----------------------|--------------------------|---------------|
    
    E|-------------------------|----------------------|-------------------------|
    B|-------------------------|----------------------|-------------------------|
    G|-------------------------|----------------------|-------------------------|
    D|-------------------------|----------------------|--------------6----------|
    A|-4--2--2--2--2--1--1--1--|--1-------------------|--6--7--7--7-----7--7--7-|
    E|-------------------------|-----4--4----4--------|-------------------------|
    
    E|--------------------|--------------------------|-------------------|
    B|--------------------|--------------------------|-------------------|
    G|--------------------|--------------------------|-------------------|
    D|--------------------|--------------6-----------|-------------------|
    A|-6--7------7--------|--6--7--7--7-----7--7--7--|--7--------9----9r-|
    E|--------------------|--------------------------|-------------------|
    
    E|-------------------------|---------------------|-------------------------|
    B|-------------------------|---------------------|-------------------------|
    G|-------------------------|---------------------|-------------------------|
    D|-------------6-----------|---------------------|-------------------------|
    A|-6--7--7--7-----7--7--7--|--6--7------7--------|--7--6--6--6--6--4--4--4-|
    E|-------------------------|---------------------|-------------------------|
    
    E|-------------|
    B|-------------|
    G|-------------|
    D|-------------|
    A|-4-----------|
    E|----0------0-|
    
    E|------------------|--------------------|----|
    B|------------------|--------------------|--x-|
    G|------------------|--------------------|--x-|
    D|------------------|--------------------|----|
    A|---------------2--|--2--4--------------|----|
    E|------------------|--------------------|----|
    
    E|-----------------14/-21⁄-19--|-------------------|-------------------------|
    B|-----9--7--12----14/-21⁄-19--|-------------------|-------------------------|
    G|-13⁄-------------------------|-------------------|--------9~---11b---11--9-|
    D|-13⁄-------------------------|-------------------|--11~--------------------|
    A|-----------------------------|--x----------------|-------------------------|
    E|-----------------------------|--x----------------|-------------------------|
    
    E|-------------------------|-------------------------|---------------|
    B|-------------------------|-------------------------|---------------|
    G|-11--9-------------------|--------9----11b---11----|--8r-----------|
    D|--------11--9--11~-------|--11---------------------|-----------11~-|
    A|-------------------------|-------------------------|---------------|
    E|-------------------------|-------------------------|---------------|
    
    E|-------------------------|-------------------------|
    B|-------------------------|-------------------------|
    G|-------9~---11b---11--9--|--11--9------------------|
    D|-11~---------------------|---------11--9--11----11-|
    A|-------------------------|-------------------------|
    E|-------------------------|-------------------------|
    
    E|-------------------------|--------------------|-------------------------|
    B|-------------------------|--------------------|-------------------------|
    G|-------------------------|--------------------|--------9~---11b---11--9-|
    D|-------9----11b---11--9--|--------------------|--11~--------------------|
    A|-11~---------------------|--11~---------------|-------------------------|
    E|-------------------------|--------------------|-------------------------|
    
    E|-------------------------|-------------------------|---------------|
    B|-------------------------|-------------------------|---------------|
    G|-11--9-------------------|--------9~---11b---11----|--8r-----------|
    D|--------11--9--11~-------|--11~--------------------|-----------11~-|
    A|-------------------------|-------------------------|---------------|
    E|-------------------------|-------------------------|---------------|
    
    E|-------------------------|--------------------|
    B|-------------------------|--------------------|
    G|-------9~---11b---11--9--|--11--9-------------|
    D|-11~---------------------|---------11--9--11~-|
    A|-------------------------|--------------------|
    E|-------------------------|--------------------|
    
    E|-------------------------|-------------------------|-------------------------|
    B|-------------------------|-------------------------|-------------------------|
    G|-------------------------|-------------------------|--11b---11r-----9--------|
    D|-9----11----11b---11--9--|--9--11--11--11----------|-------------------11--9-|
    A|-------------------------|-------------------------|-------------------------|
    E|-------------------------|-------------------------|-------------------------|
    
    E|-------------------------|------------------------|------------9-|
    B|-------------------------|------------------------|--12----12----|
    G|-11b---11r-----9---------|--11r-----11~-----11----|--------------|
    D|------------------11--9--|------------------------|--------------|
    A|-------------------------|------------------------|--------------|
    E|-------------------------|------------------------|--------------|
    
    E|-------------------------|--------------------------|-------------|
    B|-------------------------|--------------------------|-------------|
    G|-11b---11r-----9---------|--11b---11r-----9---------|--11r-----11-|
    D|------------------11--9--|-------------------11--9--|-------------|
    A|-------------------------|--------------------------|-------------|
    E|-------------------------|--------------------------|-------------|
    
    E|-9~-------------x-----|--------------------------|--------------------|
    B|-12b--------------x---|--------------------------|--------------------|
    G|--------------------x-|--------9~---11b---11--9--|--11--9-------------|
    D|----------------------|--11~---------------------|---------11--9--11~-|
    A|----------------------|--------------------------|--------------------|
    E|----------------------|--------------------------|--------------------|
    
    E|------------------------|---------------------|-------------------------|
    B|------------------------|---------------------|-------------------------|
    G|-------9~---11b---11----|--8r-----------------|--------9~---11b---11--9-|
    D|-11~--------------------|-----------11~-------|--11~--------------------|
    A|------------------------|---------------------|-------------------------|
    E|------------------------|---------------------|-------------------------|
    
    E|-------------------------|-------------------------|
    B|-------------------------|-------------------------|
    G|-11--9-------------------|-------------------------|
    D|--------11--9--11~-------|--9----11----11b---11--9-|
    A|-------------------------|-------------------------|
    E|-------------------------|-------------------------|
    
    E|-------12-11-9-11----------|--12-11-9-11----12-11-9-11------12-|
    B|---------------------------|-----------------------------------|
    G|---------------------------|-----------------------------------|
    D|---------------------------|-----------------------------------|
    A|-11------------------------|-----------------------------------|
    E|---------------------------|-----------------------------------|
    
    E|---14--------12-14-11-12---|----11-12-11-9-11---9-11-9-7----9-|
    B|---------------------------|----------------------------------|
    G|---------------------------|----------------------------------|
    D|---------------------------|----------------------------------|
    A|---------------------------|----------------------------------|
    E|---------------------------|----------------------------------|
    
    E|---11------4--------|------------4r-----|--4r---4r---4r-|
    B|--------------------|-------------------|---------------|
    G|--------------------|-------------------|---------------|
    D|--------------------|-------------------|---------------|
    A|--------------------|-------------------|---------------|
    E|--------------------|-------------------|---------------|
    
    E|-5-4-2-4----------4--7-4-|-----4----------------------|
    B|-------------------------|--7-----7-4----4------------|
    G|-------------------------|------------6-----6b--4---6-|
    D|-------------------------|------------------------6---|
    A|-------------------------|----------------------------|
    E|-------------------------|----------------------------|
    
    E|-----------------------------|----------------------------|
    B|-----------------------------|----------------------------|
    G|----4------------------------|--------------2--4----2-4-2-|
    D|--6----6-4----------------4--|--6--4--2--4----------------|
    A|-----------6-4-2----4--6-----|----------------------------|
    E|-----------------------------|----------------------------|
    
    E|---------------------|-----------------------|----------------8--9-|
    B|---------------------|--------------------4--|----7----9-----------|
    G|-1~------------4-----|----------4----6-------|---------------------|
    D|------------2-----4--|--4--6-----------------|---------------------|
    A|---------------------|-----------------------|---------------------|
    E|---------------------|-----------------------|---------------------|
    
    E|-11/-14----14--14----11----14----|--16----14----16----19------21-|
    B|---------------------------------|-------------------------------|
    G|---------------------------------|-------------------------------|
    D|---------------------------------|-------------------------------|
    A|---------------------------------|-------------------------------|
    E|---------------------------------|-------------------------------|
    
    E|-16-17-16-12----12-16-17-16-12----12-16-17-16-12-|
    B|-------------17----------------17----------------|
    G|-------------------------------------------------|
    D|-------------------------------------------------|
    A|-------------------------------------------------|
    E|-------------------------------------------------|
    
    E|----12-16-17-16-12----12-16-17-16-12-17-12-16-12-|
    B|-17----------------17----------------------------|
    G|-------------------------------------------------|
    D|-------------------------------------------------|
    A|-------------------------------------------------|
    E|-------------------------------------------------|
    
    E|-17-12-16-12-17-12-16-17-16-12-16-12-14-16-14-12-|
    B|-------------------------------------------------|
    G|-------------------------------------------------|
    D|-------------------------------------------------|
    A|-------------------------------------------------|
    E|-------------------------------------------------|
    
    E|-------------------------------------------------|
    B|-14-17-14-16-14-12-16-12-14-12-16-12-14-12-14-12-|
    G|-------------------------------------------------|
    D|-------------------------------------------------|
    A|-------------------------------------------------|
    E|-------------------------------------------------|
    
    E|-16-17-16-12-17-12-16-17-16-12-17-12-16-17-16-12-|
    B|-------------------------------------------------|
    G|-------------------------------------------------|
    D|-------------------------------------------------|
    A|-------------------------------------------------|
    E|-------------------------------------------------|
    
    E|----12-16-17-16-12----12-16-17-16-12----12-19-12-|
    B|-17----------------17----------------16----------|
    G|-------------------------------------------------|
    D|-------------------------------------------------|
    A|-------------------------------------------------|
    E|-------------------------------------------------|
    
    E|-19-12-19-12-17-12-17-12-16-17-16-12-16-12-14-16-|
    B|-------------------------------------------------|
    G|-------------------------------------------------|
    D|-------------------------------------------------|
    A|-------------------------------------------------|
    E|-------------------------------------------------|
    
    E|-14-12-11-14-----------------------|
    B|-------------14r-12--14----9-------|
    G|------------------------------9--8-|
    D|-----------------------------------|
    A|-----------------------------------|
    E|-----------------------------------|
    
    E|-11-12-9--11-9-11-9----9-11-9------11-12-|
    B|--------------------12--------12-9-------|
    G|-----------------------------------------|
    D|-----------------------------------------|
    A|-----------------------------------------|
    E|-----------------------------------------|
    
    E|-11-9---------------------------------|
    B|------12-9--12-10-9----9------12-9----|
    G|--------------------11---11b-------11-|
    D|--------------------------------------|
    A|--------------------------------------|
    E|--------------------------------------|
    
    E|------------------9-12-9-------9------|
    B|---------------9---------9-12b---12---|
    G|-11-9----9-11b----------------------9-|
    D|------11------------------------------|
    A|--------------------------------------|
    E|--------------------------------------|
    
    E|-12-14--12-14----14-----------------------|--------------------|
    B|--------------12----9-12-9-9-----12-9-----|------------12------|
    G|-----------------------------11b------11b-|----------------11b-|
    D|------------------------------------------|--------------------|
    A|------------------------------------------|--------------------|
    E|------------------------------------------|--------------------|
    
    E|--------------------------------------|
    B|--------------------------------------|
    G|---11--9------9--11--9---------11--12-|
    D|----------11------------11--9---------|
    A|--------------------------------------|
    E|--------------------------------------|
    
    E|-------------------------------------------|-------------------|
    B|-------------------------------------------|-------------------|
    G|-11--9------11------9----------------------|-------------------|
    D|--------11------11-----11--9---------------|-------------------|
    A|------------------------------11--9--7--9--|----7--------------|
    E|-------------------------------------------|-------9--9--7/-9~-|
    
    E|-------------------------|--------------------------|---------------------|
    B|-------------------------|--------------------------|---------------------|
    G|-11b---11r-----9---------|--11b---11r-----9---------|--11r-----11~-----11-|
    D|------------------11--9--|-------------------11--9--|---------------------|
    A|-------------------------|--------------------------|---------------------|
    E|-------------------------|--------------------------|---------------------|
    
    E|-----------9----9--------|-------------------------|
    B|-12----12----------12----|-------------------------|
    G|-------------------------|--11b---11r-----9--------|
    D|-------------------------|-------------------11--9-|
    A|-------------------------|-------------------------|
    E|-------------------------|-------------------------|
    
    E|-------------------------|---------------------|
    B|-------------------------|---------------------|
    G|-11b---11r-----9---------|--11r-----11~-----11-|
    D|------------------11--9--|---------------------|
    A|-------------------------|---------------------|
    E|-------------------------|---------------------|
    
    E|-----9------9------9--------|--------------------------|---------------|
    B|-12-----12-----12-----12⁄---|--------------------------|---------------|
    G|----------------------11⁄---|--------------------------|---------------|
    D|----------------------------|--------------2-----------|---------------|
    A|----------------------------|--2--4--4--4-----4--4--4--|--2--4------4~-|
    E|----------------------------|--------------------------|---------------|
    
    E|-------------------------|---------------------|-------------------------|
    B|-------------------------|---------------------|-------------------------|
    G|-------------------------|---------------------|-------------------------|
    D|-------------2-----------|---------------------|--------------2----------|
    A|-2--4--4--4-----4--4--4--|--4--2------2~-------|--2--4--4--4-----4--4--4-|
    E|-------------------------|---------------------|-------------------------|
    
    E|--------------------|--------------------------|---------------|
    B|--------------------|--------------------------|---------------|
    G|--------------------|--------------------------|---------------|
    D|--------------------|--------------------------|---------------|
    A|-2--4------4~-------|--4--2--2--2--2--1--1--1--|--1------------|
    E|--------------------|--------------------------|-----4------4~-|
    
    E|-------------------------|-----------------------|-------------------------|
    B|-------------------------|-----------------------|-------------------------|
    G|-------------------------|-----------------------|-------------------------|
    D|-------------6-----------|-----------------------|--------------6----------|
    A|-6--7--7--7-----7--7--7--|--6--7----7~-7~---7~---|--6--7--7--7-----7--7--7-|
    E|-------------------------|-----------------------|-------------------------|
    
    E|--------------------|--------------------------|--------------|
    B|--------------------|--------------------------|--------------|
    G|--------------------|--------------------------|--------------|
    D|--------------------|--------------6-----------|--------------|
    A|-7--9------9~-------|--6--7--7--7-----7--7--7--|--6--7------7-|
    E|--------------------|--------------------------|--------------|
    
    E|-------------------------|--------------|
    B|-------------------------|--------------|
    G|-------------------------|--------------|
    D|-------------------------|--------------|
    A|-7--6--6--6--6--4--4--4--|--4-----------|
    E|-------------------------|-----0------0-|
    
    E|-----------------|-------------------------|-------------------------|
    B|-----------------|-------------------------|-------------------------|
    G|-----------------|-------------------------|-------------------------|
    D|-----------------|-------------------------|-------------------------|
    A|-----------------|--2--4--4--4--4----4--4--|--4--4--4--4--4--4--4----|
    E|-----------------|-------------------------|-----------------------0-|
    
    E|-------------------------|--------------------------|----------------------|
    B|-------------------------|--------------------------|----------------------|
    G|-------9~---11b---11--9--|--11--9-------------------|--------9----11b---11-|
    D|-11~---------------------|---------11--9--11~-------|--11------------------|
    A|-------------------------|--------------------------|----------------------|
    E|-------------------------|--------------------------|----------------------|
    
    E|--------------------|--------------------------|-------------------------|
    B|--------------------|--------------------------|-------------------------|
    G|-8r-----------------|--------9~---11b---11--9--|--11--9------------------|
    D|----------11~-------|--11~---------------------|---------11--9--11----11-|
    A|--------------------|--------------------------|-------------------------|
    E|--------------------|--------------------------|-------------------------|
    
    E|-------------------------|--------------------|-------------------------|
    B|-------------------------|--------------------|-------------------------|
    G|-------------------------|--------------------|--------9~---11b---11--9-|
    D|-------9----11b---11--9--|--------------------|--11~--------------------|
    A|-11~---------------------|--11~---------------|-------------------------|
    E|-------------------------|--------------------|-------------------------|
    
    E|-------------------------|-------------------------|---------------|
    B|-------------------------|-------------------------|---------------|
    G|-11--9-------------------|--------9~---11b---11----|--8r-----------|
    D|--------11--9--11~-------|--11~--------------------|-----------11~-|
    A|-------------------------|-------------------------|---------------|
    E|-------------------------|-------------------------|---------------|
    
    E|-------------------------|--------------------|
    B|-------------------------|--------------------|
    G|-------9~---11b---11--9--|--11--9-------------|
    D|-11~---------------------|---------11--9--11~-|
    A|-------------------------|--------------------|
    E|-------------------------|--------------------|
    
    E|-------------------------|-------------------------|--9-----9~-9~-|
    B|-------------------------|-------------------------|--12b---------|
    G|-------------------------|-------------------------|--------------|
    D|-9----11----11b---11--9--|--9--11--11--11----------|--------------|
    A|-------------------------|-------------------------|--------------|
    E|-------------------------|-------------------------|--------------|
    
    E|-----14b---------14-12-|--------------12b-----|---------------------------|
    B|-----------------------|--14------------------|----14--16r-----14------14-|
    G|-----------------------|----------------------|--------------------16-----|
    D|-----------------------|----------------------|---------------------------|
    A|-----------------------|----------------------|---------------------------|
    E|-----------------------|----------------------|---------------------------|
    
    E|-------------------------|---------------------------|
    B|-19--14------14----------|----19b-----21--21--21--21-|
    G|---------16--------------|---------------------------|
    D|-------------------------|---------------------------|
    A|-------------------------|---------------------------|
    E|-------------------------|---------------------------|
    
    E|---------------------------------|------------------------------19-|
    B|-21--21--21--21--19--19--17--19--|--19r-17--19--17--19--17--19b----|
    G|---------------------------------|---------------------------------|
    D|---------------------------------|---------------------------------|
    A|---------------------------------|---------------------------------|
    E|---------------------------------|---------------------------------|
    
    E|-------------------------19b-|--------21b----------|
    B|-----17--19--17--19--17------|---------------------|
    G|-----------------------------|---------------------|
    D|-----------------------------|---------------------|
    A|-----------------------------|---------------------|
    E|-----------------------------|------------------16-|
    
    E|---------------------------|--12--11--9--11----9-----9-|
    B|-19b---------------------x-|----------------------12b--|
    G|-----------------------x---|---------------------------|
    D|---------------------------|---------------------------|
    A|-----------14--------------|---------------------------|
    E|---------------15--14------|---------------------------|
    
    E|--------------------------------|----------------------------|
    B|-12-9---------------------------|--9--9--12------------------|
    G|------11b-9-11-9-11------9--11b-|------------11r---9--11--9b-|
    D|--------------------------------|----------------------------|
    A|--------------------------------|----------------------------|
    E|--------------------------------|----------------------------|
    
    E|-----------------------------|----------------------------|
    B|-----------------------------|----------------------------|
    G|-----11------9---------------|----------------------------|
    D|-11------11-------11--9------|---------------9------9-----|
    A|-------------------------11--|--9--7--9--11-----11-----11-|
    E|-----------------------------|----------------------------|
    
    E|--------------------------|-------------------|--0-----0--------0-------|
    B|--------------------------|--x----------------|-----4-----4--------4----|
    G|--------------------------|--x----------------|--------------6--------6-|
    D|-9--11--11--11------------|-------------------|-------------------------|
    A|--------------------------|-------------------|-------------------------|
    E|--------------------5--9--|-------------------|-------------------------|
    
    E|-0----------------------|-----0--------0--------0--|--------0--------0-------|
    B|------------5-----5-----|--------4--------4--4-----|--4--------4--------4----|
    G|------6--6-----6-----6--|--6--------6--------------|-----4--------4--------4-|
    D|------------------------|--------------------------|-------------------------|
    A|------------------------|--------------------------|-------------------------|
    E|------------------------|--------------------------|-------------------------|
    
    E|------------0--------0--|--------0--------0--------|--0--------0-----------0-|
    B|------4--------4--------|--4--------4--------4-----|-----4--------4----------|
    G|-6-------6--------6-----|-----6--------6--------6--|--------6--------6--6----|
    D|------------------------|--------------------------|-------------------------|
    A|------------------------|--------------------------|-------------------------|
    E|------------------------|--------------------------|-------------------------|
    
    E|----7--7--7--7--7--7--7--|-----0--------0-----------|-----------------4------|
    B|----0--0--0--0--0--0--0--|--------4--------4-----5--|--------------2-------2-|
    G|-4--4--4--4--4--4--4--4--|--6--------6--------6-----|--6--6--6--4------------|
    D|-------------------------|--------------------------|------------------------|
    A|-------------------------|--------------------------|------------------------|
    E|-------------------------|--------------------------|------------------------|
    
    E|-2-----4--2-----4--2-----|--4--2-----4--2-----4--2--|--------------------|
    B|----2--------2--------2--|--------2--------2--------|-------4-------4----|
    G|-------------------------|--------------------------|--6-------6-------6-|
    D|-------------------------|--------------------------|--------------------|
    A|-------------------------|--------------------------|--------------------|
    E|-------------------------|--------------------------|--------------------|
    
    E|----0--0--------0--------|--0--------0-------------|-----4----0--4--------4-|
    B|-4--------4--------4-----|-----4-------------------|----------------0-------|
    G|-------------6--------4--|--------4-----4--4--2----|-------------------4----|
    D|-------------------------|-------------------------|--2---------------------|
    A|-------------------------|-------------------------|------------------------|
    E|-------------------------|-------------------------|------------------------|
    
    E|-------4--------4--------|--------------12--12--12--12-|
    B|-0--------0--------0-----|-----9--9--9--9---9---9---9--|
    G|----4--------4--------2/-|--9--------------------------|
    D|----------------------2/-|--9--------------------------|
    A|-------------------------|-----------------------------|
    E|-------------------------|-----------------------------|
    
    E|-12--16--12------9--9--9--9--|---------12--12--12--12--12--12-|
    B|-9---------------9--9--9--9--|---------9---9---9---9---9---9--|
    G|-----------------------------|--------------------------------|
    D|-------------11--------------|--9-----------------------------|
    A|-----------------------------|-----11-------------------------|
    E|-----------------------------|--------------------------------|
    
    E|-12--16--------7--7--7--7--|-----12--12--12--12--12--12--12-|
    B|-9-------9--7--7--7--7--7--|--9--9---9---9---9---9---9---9--|
    G|---------------------------|--------------------------------|
    D|---------------------------|--------------------------------|
    A|---------------------------|--------------------------------|
    E|---------------------------|--------------------------------|
    
    E|-12--16-----9--9--9--9--9--|--------12--12--12--12--12----|
    B|-9-------9--9--9--9--9--9--|--9--9--9---9---9---9---9---0-|
    G|---------------------------|------------------------------|
    D|---------------------------|------------------------------|
    A|---------------------------|------------------------------|
    E|---------------------------|------------------------------|
    
    E|-12--12--14--12--14--12--14--12--|--9--------12--12--12--12--12-|
    B|-12--12--12--12--12--12--12--12--|--9--9--9--9---9---9---9---9--|
    G|---------------------------------|------------------------------|
    D|---------------------------------|------------------------------|
    A|---------------------------------|------------------------------|
    E|---------------------------------|------------------------------|
    
    E|-12--16--------9--9--9--9--|--9--12--12--12--12--12--12--12-|
    B|-9-------9--9--9--9--9--9--|--9--9---9---9---9---9---9---9--|
    G|---------------------------|--------------------------------|
    D|---------------------------|--------------------------------|
    A|---------------------------|--------------------------------|
    E|---------------------------|--------------------------------|
    
    E|-9--11--11--11--11--11--11--11--|-----12--12--12--12--12--12--12-|
    B|-9--9---9---9---9---9---9---9---|--9--9---9---9---9---9---9---9--|
    G|--------------------------------|--------------------------------|
    D|--------------------------------|--------------------------------|
    A|--------------------------------|--------------------------------|
    E|--------------------------------|--------------------------------|
    
    E|-12--16--------9--9--9--9--|--9--12--9------9--9--9----|
    B|-9-------9--9--9--9--9--9--|--9--12--9--12--9--9--9--9-|
    G|---------------------------|------------11-------------|
    D|---------------------------|---------------------------|
    A|---------------------------|---------------------------|
    E|---------------------------|---------------------------|
    
    E|-----12--12-------------------|--------------------------|
    B|-----9---9-------9--9---------|--------------------------|
    G|-11----------11--9--9--11--9--|--11--9--9--11--x--x------|
    D|-----------------------11--9--|--11--9--9--11--x--x------|
    A|------------------------------|--------------------------|
    E|------------------------------|----------------------12⁄-|
    
    E|-------------------------|-------------------------|
    B|-------------------------|-------------------------|
    G|-------------------------|-------------------------|
    D|-------------------------|-------------------------|
    A|-2--4--4--4--0--4--4--4--|--2--4--4--4--4--4--4--4-|
    E|-------------------------|-------------------------|
    
    E|-------------------------|-------------------------|
    B|-------------------------|-------------------------|
    G|-------------------------|-------------------------|
    D|-------------2-----------|-------------------------|
    A|-2--4--4--4-----4--4--4--|--4--6--6--6--6--6--6--6-|
    E|-------------------------|-------------------------|
    
    E|-------------------------|-------------------------|
    B|-------------------------|-------------------------|
    G|-------------------------|-------------------------|
    D|-------------2-----------|-------------------------|
    A|-2--4--4--4-----4--4--4--|--2--4--4--4--4--4--4--4-|
    E|-------------------------|-------------------------|
    
    E|-------------------------|-------------------------|
    B|-------------------------|-------------------------|
    G|-------------------------|-------------------------|
    D|-------------2--------4--|--2--4--4--4--4--6--6--6-|
    A|-2--4--4--4-----4--4-----|-------------------------|
    E|-------------------------|-------------------------|
    
    E|-------------------------|-------------------------|
    B|-------------------------|-------------------------|
    G|-------------------------|-------------------------|
    D|-------------2-----------|-------------------------|
    A|-2--4--4--4-----4--4--4--|--2--4--4--4--4--4--4--4-|
    E|-------------------------|-------------------------|
    
    E|-------------------------|-------------------------|
    B|-------------------------|-------------------------|
    G|-------------------------|-------------------------|
    D|-------------2-----------|-------------------------|
    A|-2--4--4--4-----4--4--4--|--4--6--7--6--8--6--7--6-|
    E|-------------------------|-------------------------|
    
    

    Тональность:

    Нет текста!



    Назад
    Рекомендуем посмотреть другие песни исполнителя «Satriani Joe»:

    • Комментарии Facebook ()
    • Комментарии ВКонтакте



    Добавить в Избранное Браузера
    Сохранить здесь Очистить


    x

    0


    +
    -

    +
    -

    -

    Авторизация





    Зарегистрироваться

    M

    Дата и время

    • 09:11:40
       

    Социальные ссылки


    Наши приложения

    • Muzbank App Play Market
    • Muzbank Amazon App