MUZBANK



A Most Complete Bank Of Music Information

МУЗЫКАЛЬНО-ИНФОРМАЦИОННЫЙ БАНК

Поиск по сайту







    SSatriani Joe • Crowd Chant (аккорды и текст - chords & lyrics)


    426

    Print

    Видео «Crowd Chant (Satriani Joe)»

    Видео клипы к песне подбираются автоматически сайтом youtube. Возможны некоторые несоответствия клипов песне.

    ↑ Спрятать рекламу ↑



    Download


    Intro riff - 2x
    
    |--------------------------|--------------------------|
    |--------------------------|--------------------------|
    |---------------------9h11-|--------------------------|
    |-9h11-9h11-9h11-9h11-9h11-|-9h11-9h11-9h11-9h11-9----|
    |-9h11-9h11-9h11-9h11-9----|-9h11-9h11-9h11-9h11-9-9--|
    |-9----9----9----9---------|-9----9----9----9------9--|
    
    |--------------------------|--------------|
    |--------------------------|--------------|
    |---------------------9h11-|--------------|
    |-9h11-9h11-9h11-9h11-9h11-|-2-4--7--9----|
    |-9h11-9h11-9h11-9h11-9----|-2-4--7--9----|
    |-9----9----9----9---------|-0-2--5--7----|
    
    
    
    
    The Call and reply section with the crowd
    
    |-------------------|----|---------------------|-----|
    |-------------------|----|---------------------|-----|
    |----9-11p9---------|----|---------------------|-----|
    |-11--------11p9-11-|----|-11--9---------------|-----|
    |-------------------|----|-------11--9---------|-----|
    |-------------------|----|--------------12--9--|-----|
    
    
    
    |----------------------------------|----|
    |----------------------------------|----|
    |-----9-11-11b13r(11)p=9---11b13---|----|
    |-11-------------------------------|----|
    |----------------------------------|----|
    |----------------------------------|----|
    
    
    
    Slowly let off the bend towards the last couple of notes
    (I hope you get the idea... I cant figure out how to tab bends)
    |--------------------------------------------------------|-----|
    |------9-------------------------------------------------|-----|
    |--11pb13==11-11-11-11-11-11-11-11-11-pb12.5r11--9-------|-----|
    |----------------------------------------------------11--|-----|
    |--------------------------------------------------------|-----|
    |--------------------------------------------------------|-----|
    
    
    
    |---------9------------9-----------------------|-----|
    |--12b14-----9--12b14-----9--12b14-------------|-----|
    |----------------------------------------------|-----|
    |----------------------------------------------|-----|
    |----------------------------------------------|-----|
    |----------------------------------------------|-----|
    
    
    
    |---14b16==--16r15==--15r14p12-----------------|-----|
    |-----------------------------------14---------|-----|
    |----------------------------------------------|-----|
    |----------------------------------------------|-----|
    |----------------------------------------------|-----|
    |----------------------------------------------|-----|
    
    
    
    |--9-------------------9---------------------------------|-----|
    |------12--9---------------12--9-------------------------|-----|
    |---------------11b13-------------11---9----------9~~~~--|-----|
    |-----------------------------------------11---9---------|-----|
    |--------------------------------------------------------|-----|
    |--------------------------------------------------------|-----|
    
    
    
    |---------------------|-----|
    |---------------------|-----|
    |---------------------|-----|
    |-11--9---------------|-----|
    |-------11--9---------|-----|
    |--------------12--9--|-----|
    
    
    
    
    Crowd starts the "Hey! Hey!..." chant
    
    |--------------------------------|--------------------------|
    |--------------------------------|--------------------------|
    |--------------------------------|--------------------------|
    |-x--x---------------------------|-x--x---------------------|
    |-x--x--7--4--7-4-4-7-4-4-7--4---|-x--x--7--4--7-4-4--------|
    |--------------------------------|--------------------7-----|
    
    
    |--------------------------------|--------------------------------|
    |--------------------------------|--------------------------------|
    |--------------------------------|------------------⁄⁄⁄pickslide--|
    |-x--x---------------------------|-x--x-------------⁄⁄⁄-----------|
    |-x--x--7--4--7-4-4-7-4-4-7--4---|-x--x--7--4---------------------|
    |--------------------------------|--------------------------------|
    
    
    
    
    The organ comes in (plays the chords listed at the above)
    
    C#m A B G#m
    PM.......... PM..........
    |------------------------------------|--------------------------------|
    |----------5-------------------------|--------------------------------|
    |------------------------------6-----|----------8------------------4--|
    |-----6------------------------7-----|-----------------------------6--|
    |--4-------------7--7--7---7---------|-----9---------6--6--6---6------|
    |----------------5--5--5---5---------|-/7------------4--4--4---4------|
    
    
    
    A F#m G#sus4 G#
    PM..........
    |------------------------------------|--------------------------------|
    |------------------------------------|--------------------------------|
    |----------6-------------------2-----|--------6------------------5----|
    |------------------------------4-----|-----------6----6---------------|
    |-----7----------4--4--4---4---------|-----6--------------6---6-------|
    |--5-------------2--2--2---2---------|--4-----------------------------|
    
    
    
    C#m A B G#m
    PM.......... PM..........
    |------------------------------------|--------------------------------|
    |--------5---------------------------|--------------------------------|
    |------------------------------6-----|--------8--------------------4--|
    |-----6-----6------------------7-----|-----------------------------6--|
    |--4-------------7--7--7---7---------|-----9-----9---6--6--6---6------|
    |----------------5--5--5---5---------|-/7------------4--4--4---4------|
    
    
    
    
    A F#m G#sus4 F#m
    PM..........
    |------------------------------------|----------------------------|
    |------------------------------------|----------------------------|
    |--------6---------------------2-----|--------6---------------2---|
    |------------------------------4-----|---------------4--------4---|
    |-----7-----7----4--4--4---4---------|-----6-----6---4------------|
    |--5-------------2--2--2---2---------|--4---------------2--2------|
    
    
    
    E D C#m B
    PM.......... PM..........
    |------------------------------2-----|-------------------------------|
    |------------------------------3-----|--------5-------------------4--|
    |--------1-------2--2--2---2---------|----------------------------4--|
    |----------------0--0--0---0---------|-----6-----6---4--4--4---4-----|
    |-----2-----2------------------------|--4------------2--2--2---2-----|
    |--0---------------------------------|-------------------------------|
    
    
    
    A B C#m
    PM..........
    |------------------------------------|-----------------|
    |------------------------------------|-----------------|
    |--------6---------------------5-----|--6--------------|
    |------------------------------6-----|--6--------------|
    |-----7-----7----6--6--6---6---------|--4--------------|
    |--5-------------4--4--4---4---------|-----------------|
    
    
    
    |---------------------------------------------|
    |---------------------------------------------|
    |---///--pickslides up and down -------////---|
    |---///--------------------------------////---|
    |---------------------------------------------|
    |---------------------------------------------|
    
    
    
    
    
    and the crowd comes back!
    
    |----------------|----|--------------------------------------------|-----|
    |----------------|----|-12-12-12-12--------------------------------|-----|
    |----------------|----|---------------pb12r11p9-----11-----9-------|-----|
    |------2h4p2-----|----|--------------------------11----11-----11~--|-----|
    |-2--4-------4---|----|--------------------------------------------|-----|
    |----------------|----|--------------------------------------------|-----|
    
    
    
    |--------------------------------------------------------|----|
    |--------------------------------------------------------|----|
    |----|----|
    |--------------------------------------------------------|----|
    |--------------------------------------------------------|----|
    |--------------------------------------------------------|----|
    
    
    
    |----------------------|----|
    |----------------------|----|
    |----|----|
    |----------------------|----|
    |----------------------|----|
    |--------------------- |----|
    
    
    
    |------------------------------------------------------------|----|
    |------------------------------------------------------------|----|
    |---|----|
    |------------------------------------------------------------|----|
    |------------------------------------------------------------|----|
    |------------------------------------------------------------|----|
    
    
    
    |---------------------------------------|----|
    |---------------------------------------|----|
    |---6-------9-------4-------6-----------|----|
    |--(while shaking the whammy bar)------|----|
    |---------------------------------------|----|
    |---------------------------------------|----|
    
    
    
    |-----------------------------------------------------|-----------------------|
    |--12------12------12-------------------12------------|--x--x--x--x--x-x-x-x--|
    |--11b12---11b12---11b12---11p9---------11b12---------|--x--x--x--x--x-x-x-x--|
    |--------------------------------11p9-----------------|--x--x--x--x--x-x-x-x--|
    |-----------------------------------------------------|-----------------------|
    |-----------------------------------------------------|-----------------------|
    
    
    
    
    |--------------------------------------|------------------------------|
    |--12------12--------------------------|------------------------------|
    |--11b12---11b12----11p9---------------|----------//pickscrape//------|
    |--------------------------11p9---11~~~|~~⁄---------------------------|
    |--------------------------------------|------------------------------|
    |--------------------------------------|------------------------------|
    
    
    
    
    Now repeat the intro riff twice again then go directly
    into the first 4 bars of the organ part
    
    6x (C#m, A, B, G#m, A, F#m, G#sus4, G#)
    
    with the crowd going into the final chant for the last 4 repeats
    
    
    
    and finish with the intro riff
    
    
    |--------------------------|--------------------------|
    |--------------------------|--------------------------|
    |---------------------9h11-|--------------------------|
    |-9h11-9h11-9h11-9h11-9h11-|-11-----------------------|
    |-9h11-9h11-9h11-9h11-9----|-11-----------------------|
    |-9----9----9----9---------|-9------------------------|
    

    Тональность:

    Нет текста!



    Назад
    Рекомендуем посмотреть другие песни исполнителя «Satriani Joe»:

    • Комментарии Facebook ()
    • Комментарии ВКонтакте



    Добавить в Избранное Браузера
    Сохранить здесь Очистить


    x

    0


    +
    -

    +
    -

    -

    Авторизация





    Зарегистрироваться

    M

    Дата и время

    • 23:08:40
       

    Социальные ссылки


    Наши приложения

    • Muzbank App Play Market
    • Muzbank Amazon App