MUZBANK



A Most Complete Bank Of Music Information

МУЗЫКАЛЬНО-ИНФОРМАЦИОННЫЙ БАНК

Поиск по сайту







    SSatriani Joe • Surfing With The Alien (аккорды и текст - chords & lyrics)


    277

    Print

    Видео «Surfing With The Alien (Satriani Joe)»

    Видео клипы к песне подбираются автоматически сайтом youtube. Возможны некоторые несоответствия клипов песне.

    ↑ Спрятать рекламу ↑



    Download



    Intro
    Q=171
    4/4
    Gtr I
    PM--------------| PM--|
    W H Q E E +E E E E E E E E E E E E +E E E E
    |----------|-------------|-------------------|-------------------|
    |----------|-------------|-------------------|-----6-5-(5)-------|
    |----------|-------------|-------------------|-----3-5-(5)-------|
    |----------|-----------5-|-(5)-5-------------|-----3-5-(5)-5-7-3-|
    |----------|-----------5-|-(5)-5-5-5-5-5-5-5-|---3---3-(3)-3-3-3-|
    |----------|-----------3-|-(3)-3-3-3-3-3-3-3-|-6-----------------|
    |-Rhy Fig 1
    
    PM------------| ~~~~~~ PM PM--------|
    E E E E E E E E E +E E E +E E E E +E E E E E E E E
    |-----------------|--------------------------|-------------------|
    |-----------------|--------------------------|-------------------|
    |-----------------|-2b3r(2)-0--------0-------|-------------------|
    |-8-8-7-3-5-5-7-5-|-2b3r(2)-0-/5-(5)-0-----5-|-(5)-5-------------|
    |-3-3-3-3-3-3-3-3-|-----------/5-(5)---(0)-5-|-(5)-5-5-5-5-5-5-5-|
    |-----------------|---------------------0--3-|-(3)-3-3-3-3-3-3-3-|
    
    
    Gtrs I, II
    PM| PM------------| ~~
    E E E E +E E E E E E E E E E E E H Q E E
    |-------------------|---------------------|---------------------|
    |-----6-5-(5)-------|---------------------|---------------------|
    |-----3-5-(5)-------|-----------0-3b3.5-0-|-5-0-3b3.5-0-(0)--12-| end Rhy Fig 1
    |-----3-5-(5)-5-7-3-|-8---7-3-5-0-3b3.5-0-|-5-0-3b3.5-0-(0)---5-|
    |---3---3-(3)-3-3-3-|-3-3-3-3-3-----------|-------------------5-|
    |-6-----------------|---------------------|-----------------0-3-|
    E E E E +Q E E
    
    
    Gtr II
    ~~~~ ~~ ~~~~~~
    +Q a E E Q E E E +Q E +Q. +E
    |---------------------------|-----------------------------|
    |---------------------------|-----------------------------|
    |-(12)---12s10----10---12---|-9b10==(9)r---9-(9)-----(9)⁄-|
    |--------------12-----------|-----------------------------|
    |---------------------------|-----------------------------|
    |---------------------------|-----------------------------|
    |
    | Gtr I
    | PM---------------------------| PM--------
    | +E E E E E E E E E E E E +E E E E
    |---------------------------|-----------------------------|
    |---------------------------|------------6-5-(5)----------|
    |---------------------------|------------3-5-(5)----------|
    |--(5)-5--------------------|------------3-5-(5)-5-5--5---|
    |--(5)-5-----5--5--5-5--5-5-|--------3-----3-(3)-3-3--3---|
    |--(3)-3-----3--3--3-3--3-3-|-6---------------------------|
    |-Rhy Fig 2
    
    ~~~~~~~~~~~~~ ~~
    E E E E E E Q +Q +Q Q E E
    |----------------------------|------------------------------|
    |----------------------------|------------------------------|
    |----------------------------|---------------------------12-|
    |-------8b8.5----10-8b9------|------------------------------|
    |---/10-------10--------10---|-(10)------(10)⁄--------------|
    |----------------------------|------------------------------|
    |
    |-| PM-------| PM
    | E E E E E E E E E +E E E +E E E E
    |----------------------------|------------------------------|
    |----------------------------|------------------------------|
    |-----5------------------5---|---2b3r(2)---0----------------|
    |-5---5-5------5--5-5----5-0-|---2b3r(2)---0---5-(5)-5----5-|
    |-3---3-3------3--3-3------0-|-----------------5-(5)-5----5-|
    |----------------------------|-----------------3-(3)-3-0--3-|
    
    
    ~~~~ ~~~~~~~
    +Q a E E E +E E E E Q E +Q. +E
    |------------------------------------|-----------------------------------|
    |-----------------11b12==(11)r-------|-11b11.5-11b12---------------------|
    |-(12)---12s10-----------------12-10-|-----------------12-(12)-----(12)⁄-|
    |--------------12--------------------|-----------------------------------|
    |------------------------------------|-----------------------------------|
    |------------------------------------|-----------------------------------|
    |
    | PM--------------------------------| PM---------
    | +E E E E E E E E E E E E +E E E E
    |------------------------------------|-----------------------------------|
    |------------------------------------|---------------6--5--(5)-----------|
    |------------------------------------|---------------3--5--(5)-----------|
    |--(5)-5-----------------------------|---------------3--5--(5)-5-7-------|
    |--(5)-5-----5--5--5-------5----5--5-|----------3-------3--(3)-3-3---3---|
    |--(3)-3-----3--3--3-------3----3--3-|--6--------------------------------|
    
    
    ~~~~~~~~~~~~~ ~~
    E E E E E E Q Q +Q Q E E
    |---------------------------------|---------------------------|
    |---------------------------------|---------------------------|
    |---------------------------------|------------------------12-|
    |-------8b8.5----10-8b9-----------|---------------------------|
    |---/10-------10--------[10]------|-10---(10)⁄----------------|
    |---------------------------------|---------------------------|
    |
    |-------------| PM
    | E E E E E E E E E E E E +E E E E
    |---------------------------------|---------------------------|
    |-----------------5---------------|---------------------------|
    |-----------------5-0-----3b3.5-0-|--5-0---3b3.5-0-(0)--------|
    |-5---5-8------5--5-0-----3b3.5-0-|--5-0---3b3.5-0-(0)-5----5-|
    |-3---3-3------3--3---------------|--------------------5----5-|
    |---------------------------------|--------------------3-0--3-|
    end Rhy Fig 2-|
    
    w/Rhy Fig 2 (1st 6 bars)
    ~~~~ ~~~~ ~~~~~~
    +Q a E E Q E E E +Q E +Q. +E
    |------------------------------|-------------------------------|
    |------------------------------|-------------------------------|
    |-(12)---12s10----[10]---12-12-|-[9]b10==(9)r---9-(9)-----(9)⁄-|
    |--------------12--------------|-------------------------------|
    |------------------------------|-------------------------------|
    |------------------------------|-------------------------------|
    
    
    ~~~~~~ ~~
    E S S E E E E Q +Q. +E Q E E
    |-----------------------------------|-------------------------------|
    |-----------------------------------|-------------------------------|
    |-----------------------------------|-------------------------------|
    |----------[8]b8.5------10-8b9------|---------------------------17--|
    |---/10-10---------[10]--------10---|-(10)--------(10)⁄-------------|
    |-----------------------------------|-------------------------------|
    
    
    ~~~~ ~~~~~~~
    +Q E E E +E E E E Q E +Q. E
    |---------------------------------|----------------------------|
    |---------------------------------|----------------------------|
    |--------------15b16==(15)r-------|-15-15b16-------------------|
    |-(17)---15-----------------17-15-|------------17-(17)-----17⁄-|
    |-----------17--------------------|----------------------------|
    |---------------------------------|----------------------------|
    
    
    ~~~~
    E E E E E E Q +Q. +E H
    |--------------------------------|-------------------------------|
    |------15----17-15b15.5----------|-------------------------------|
    |------15----17-15b15.5----------|-------------------------------|
    |---17----17------------17-------|-(17)---------(17)⁄------------|
    |--------------------------------|-------------------------------|
    |--------------------------------|-------------------------------|
    |
    |---------| PM
    | E E E E E E E E E E E E +E E E E
    |--------------------------------|-------------------------------|
    |-------------5------------------|-------------------------------|
    |-------------5--0-------3b3.5-0-|---5--0-3b3.5---0---(0)--------|
    |-5--5--8--5--5--0-------3b3.5-0-|---5--0-3b3.5---0---(0)-5---2--|
    |-3--3--3--3--3------------------|------------------------5---2--|
    |--------------------------------|------------------------3-0-0--|
    |-Rhy Fill 1 ---|
    
    ~~~~~~~~~
    Q Q E E E E E E E E +Q E E
    |-------------------------|-----------------------|
    |-------------------------|-----------------------|
    |-------------------------|-----------------------|
    |-----------5b5.5-7---7b9-|-------[5]-([5])---7p5-|
    |-------7-----------------|---7-------------------|
    |-------------------------|-----------------------|
    |
    | PM------------------------------------|
    | +E E E E E E E E E E E E E E E E
    |-------------------------|-----------------------|
    |-------------------------|-----------------------|
    |-------------------------|---------------------5-|
    |-(2)-2-------------------|---------------------5-|
    |-(2)-2-2-2-2-----2-2-2---|-2-2-2--2----2---2-0-3-|
    |-(0)-0-0-0-0-----0-0-0---|-0-0-0--0----0---0-0---|
    |-Rhy Fig 3
    
    H +Q +E E
    |------------------------------|
    |------------------------------|
    |------------------------------|
    |--7b8========(7)r==(7)-[7]b8==|
    |------------------------------|
    |------------------------------|
    |
    | +E E E E E E E E
    |------------------------------|
    |------------------------------|
    |-(5)---5----------------------|
    |-(5)---5-5-5--5--5--5---5-----|
    |-(3)---3-3-3--3--3--3---3-----|
    |------------------------------|
    
    
    ~
    +E E E E Q E E Q E E E E E E
    |-------------------------|---------------------|
    |-------------------------|---------------------|
    |------[5]---[5]----------|---------------------|
    |-(7)r-----7-----5---7----|-----------5-7---7b9-|
    |----------------------5⁄-|-------5p3-----------|
    |-------------------------|---------------------|
    |
    | PM PM PM| PM--| PM-----
    | E E E E E E E E +E E E E E E E E
    |-------------------------|---------------------|
    |-------5-----------------|---------------------|
    |-------5--------5--------|---------------------|
    |--5----5--5--5--5-----5--|-(5)-5-------5-------|
    |--3----3--3--3--3-----5--|-(5)-5-5-5-5-5-5-5---|
    |------------------5-5-3--|-(3)-3-3-3-3-3-3-3---|
    
    
    ⁄7
    ~~~~~~ ~~~
    E E E E +E E E E a H. +Q
    |-------------------|-----------------------|
    |-------------------|-----------------------|
    |-------------------|-----------------------|
    |-------5-(5)-5-7-5-|-5h=7------------(7)---|
    |---5p3-------------|-----------------------|
    |-------------------|-----------------------|
    |
    |-| PM PM--| PM-|
    | E E E E E E E E +E E E E E E E E
    |-------------------|-----------------------|
    |-------------------|---------------7-------|
    |-------------5---7-|---(7)-7-------7-------|
    |-5-5------5--5---7-|---(7)-7-7-7-7-7--7--7-|
    |-5-5-5-5--5--3-0-5-|---(5)-5-5-5-5-5--5--5-|
    |-3-3-3-3--3--------|-----------------------|
    
    
    ⁄2.5 ⁄1__/
    a a H Q. a E +E E E E E E E E
    |---------------------------------|--------------------------------------|
    |---------------------------------|--------------------------------------|
    |-----[5]-------------------------|-------------[12]b12.5-[14]---[14]b16-|
    |---x-----------------------------|-------/14----------------------------|
    |-x---------------0---------------|--------------------------------------|
    |---------------------------0---0-|-(0)----------------------------------|
    |
    |-----------------------------------------------| PM----------------------
    | E E E E E +E E E Q Q +Q. E
    |---------------------------------|---------0----(0)---------------0-----|
    |------5----7---------------------|---------0----(0)---------------0-----|
    |------5----7-7-------------------|--------------------------------------|
    |------5----7-7-----------------2-|-(2)----------------------------------|
    |------5----5-5-----------------2-|-(2)-----------2---------2--2---------|
    |---------------0-5b6r(5)-3-----0-|-(0)-----------0---------0--0---------|
    +H E E Q
    
    
    ~~~~~~~
    E E E E +Q E E H +H
    |--------------------------------|----------------------------|
    |--------------------------------|----------------------------|
    |---------------12-(12)----14p12-|-[14]b15========(14)r-------|
    |-----14b14.5--------------------|----------------------------|
    |--------------------------------|----------------------------|
    |--------------------------------|----------------------------|
    |
    |-|PM-------------------| PM PM| PM
    | +H. Q +E E E E E E E E
    |-(0)----------------------------|----------------------------|
    |-(0)----------------------------|----------------------------|
    |------------------------------5-|--(5)-----5-----------5-----|
    |------------------------------5-|--(5)-----5-7-5---5---5-7-5-|
    |--2---2------2--2----------0--3-|--(3)-----3-3-3---3---3-3-3-|
    |--0---0------0--0---0--/3-------|----------------------------|
    E E E E E E E E
    
    
    ~~~~
    E E +E E +E +Q.
    |-15----------------13--(13)-(13)-----|
    |-------------------------------------|
    |----[14]pb15r(14)-(14)-(14)-(14)-----|
    |-------------------------------------|
    |-------------------------------------|
    |-------------------------------------|
    |
    | PM PM
    | E E E E Q E E
    |-------------------------------------|
    |------5------------------5-----------|
    |------5------------------5-----------|
    |--5---5--------7----5----5---------5-|
    |--3---3--------3----3----3---------5-|
    |---------------------------------0-3-|
    
    
    ~~~~~~~
    +E E E E E E E E E E E E +Q E E
    |-(13)⁄-----------------------|------------------------|
    |-----------------------------|------------------------|
    |-(14)⁄---------12-14---14b16-|--------12-(12)---14-12-|
    |---------/12-x---------------|---12-------------------|
    |-----------------------------|------------------------|
    |-----------------------------|------------------------|
    |
    | PM------------------| PM| PM|
    | +E E E E E E E E E E E E E E E E
    |-----------------------------|------------------------|
    |-----------------------------|------------------------|
    |-----------------------------|----------------------7-|
    |--(5)--5---------------------|----5--------5--------7-|
    |--(5)--5---5-5--5--5-5--5----|-5--5-5--5---5--5--0--5-|
    |--(3)--3---3-3--3--3-3--3----|-3--3-3--3---3--3-------|
    
    
    D5(type 2) D5 C#5
    Gtr I end Rhy Fig 3-|
    E E E E E E E E Q Q Q E E
    | | | | | | | | | |
    / / / / / / / / / /
    
    Gtr II
    ~~~~ T T
    |--3--|
    Q. +E +H +S E. Q Q. S S S
    |-------------------------|------------------22p21-22-|
    |-------------------------|---------------------------|
    |-14------(14)-(14)-------|-(14)----------------------|
    |-------------------------|---------------------------|
    |-------------------------|---------------------------|
    |-------------------------|---------------------------|
    
    
    Guitar Solo
    C#5(type 2)
    +E E E E E E E E
    | | | | | | | |
    / / / / / / / /
    
    T T T T T T T T T T T T
    |------5------| |------6-------| |------6-------| |---------7---------|
    S S S S S S S S S S S S S S S S S S S S S S S S
    |-21-22p21---22p21-22p21-22p21-22p21-22p21-22p21-22p21-22p21-22p21--22p19-22p=|
    |-----------------------------------------------------------------------------|
    |-----------------------------------------------------------------------------|
    |-----------------------------------------------------------------------------|
    |-----------------------------------------------------------------------------|
    |-----------------------------------------------------------------------------|
    
    
    B C# D C#5
    E E E E E E E E
    | | | | | | | |
    / / / / o o o /
    
    T T T T T T T T T T T
    |------6-------| |-----6-----| |------6-------| |------6-------|
    S S S S S S S E S S S S S S S S S S S S S S S
    |-19-22p19-22p19-22p21-21h22-21-22p17-22p17-22p17-22p19-22p19-22p19-22-|
    |----------------------------------------------------------------------|
    |----------------------------------------------------------------------|
    |----------------------------------------------------------------------|
    |----------------------------------------------------------------------|
    |----------------------------------------------------------------------|
    
    
    C#5(type 2)
    +E E E E E E E E
    | | | | | | | |
    / / / / / / / /
    
    T T T T T T T T T T T T
    |-------------12:8---------------| |-------------12:8---------------|
    S S S S S S S S S S S S S S S S S S S S S S S S
    |-16-22p16-22p17-22p17-22p16-22p16-22p14-22p14-22p14-22p13-22p13-22p14-22p==|
    |---------------------------------------------------------------------------|
    |---------------------------------------------------------------------------|
    |---------------------------------------------------------------------------|
    |---------------------------------------------------------------------------|
    |---------------------------------------------------------------------------|
    
    
    B C# D D5
    E E E E E E E E
    | | | | | | | |
    / / / / o o o /
    
    T T T T T T T T T
    |---------8----------| |-----5-----| |-3--|
    S S S S S S S S S S S S S S S S S S E S S
    |-14-22p13-22p14-22p13-22p13-21p9---21p9-21-21p9-21p7--------|
    |-----------------------------------------------------7⁄-x-x-|
    |--------------------------------------------------------x-x-|
    |------------------------------------------------------------|
    |------------------------------------------------------------|
    |------------------------------------------------------------|
    
    
    C#5 C#5(type 2)
    +E E E E E E E E
    | | | | | | | |
    / / / / / / / /
    
    E E +E +S S S S T T T T S S S S
    |--x-9b10==(9)r(9)p7-10p7h9h10p9p7-----------|
    |--x-------------------------------10p9p7----|
    |--x--------------------------------------9p=|
    |--------------------------------------------|
    |--------------------------------------------|
    |--------------------------------------------|
    
    
    B C# D C#5
    E E E E E E E S S
    | | | | | | | | |
    / / / / o o o / /
    
    |-3-| |-3-|
    S S T S. S S S S S S S S S T T S S S S
    |----------------------------------------|
    |--------------x-------------------------|
    |-7h9p7s6--7-9-----6h7p6-------6h7p6-----|
    |----------------9-------9---9-------9---|
    |----------------------------------------|
    |----------------------------------------|
    
    
    C#5(type 2) C# D E D#5
    E E E E E E E E E E E E E E E E
    | | | | | | | | | | | | | | | |
    / / / / / / / / / / / / o o o /
    
    ~~~~~~
    |----5----| |----5----| |-3-|
    S S S S S S S S S S S S S S S S S S S Q E E +E E E E
    |-------------------------------------------|--------------------------|
    |-------------------------------------------|--------------------------|
    |-------------------------------------------|--------------------------|
    |-6h7p6-----6h7h9p7p==6---6h7p6-------------|--------------------------|
    |---------9-------------9-------9-7p0h5h7p4s|=2s==4-4-(4)-4s11⁄--------|
    |-------------------------------------------|-------------------(7)----|
    
    
    D#5(type 2) C#D# E5
    +E E E E E E E E E E E E E E E E
    | | | | | | | | | | | | | | | |
    / / / / / / / / / / / / o o / /
    
    PM--| ~~~ ~~~~
    E E E E Q E E E E E E E E E E
    |----------------------|-----------------------|
    |----------------------|-----------------------|
    |----------------------|-------------------[6]-|
    |--x-------------------|-----------------------|
    |--x-6-7-6-[4]---6-[5]-|-6-7-7-6---[6]-[7]-----|
    |----------------------|-----------------------|
    
    
    D#5(type 2)
    +E E E E E E E E
    | | | | | | | |
    / / / / / / / /
    
    ~~~~~
    +E E E E E E E E
    |-------------------------------------------|
    |-------------------------------------------|
    |-(6)---[6]b6.5---[6]b6.5-[6]b6.5-[6]b6.5---|
    |-----8---------8-------------------------8-|
    |-------------------------------------------|
    |-------------------------------------------|
    
    
    C# D# E D# D#5(type 2)
    E E E E E E E E +E E E E E E E E
    | | | | | | | | | | | | | | | |
    / / / / o o o o / / / / / / / /
    
    ~~~~~~~ ~~~~ ~~ PM
    E E E E +E E E E +Q E E Q E E
    |--------------------------------|-------------------------|
    |--------------------------------|-------------------------|
    |-[6]b6.5---6-----------------12-|-(12)---13------------12-|
    |---------8---[6]-(6)-(0)-/11----|-----------12-11---13----|
    |--------------------------------|-------------------------|
    |--------------------------------|-------------------------|
    
    
    C#D# E5
    E E E E E E E E
    | | | | | | | |
    / / / / o o / /
    
    ~~
    Q E E E S +S +Q
    |-------------------------------------|
    |--------------14pb16r(14)b16==(14)---|
    |-12---13----x------------------------|
    |---------11-x------------------------|
    |-------------------------------------|
    |-------------------------------------|
    
    D#5 D#5(type 2)
    E E E E E E E E
    | | | | | | | |
    / / / / / / / /
    
    ~~~~ ~~~~~
    |--3--|
    +E E T T E. +S S S S S +E.. T
    |----------11-------------------11-------------------------|
    |-(14)-14r----11h14b16====(14)r----14p11-14b16==(14)r---11-|
    |----------------------------------------------------------|
    |----------------------------------------------------------|
    |----------------------------------------------------------|
    |----------------------------------------------------------|
    
    
    Eb F GbF5
    E E E E E E E E
    | | | | | | | |
    / / / / o o / /
    
    ⁄7
    |--3--|
    S S S S S +S +S E E +E Q
    |-11-----------------------------------------------|
    |----14p11-14-14b16==(14)r(14)s20s22b26==(22)r-----|
    |--------------------------------------------------|
    |--------------------------------------------------|
    |--------------------------------------------------|
    |--------------------------------------------------|
    
    
    F5F5(type 2) Eb F Gb5
    +E E E E E E E E E E E E E E E E
    | | | | | | | | | | | | | | | |
    / / / / / / / / / / / / o o / /
    
    E E S S S S S S S S S S S S S S S S S S S S S S S S S S S S
    |------------------------------|-----------------------------------|
    |------------------------------|-----------------------------------|
    |------------------------------|-----------------------------8-----|
    |----7-8p4-4-4-8p4-7p4s3s4-7s8-|-7p4s3s4-7p4-8p4-7p4s3s4-7p4-------|
    |------------------------------|-----------------------------------|
    |------------------------------|-----------------------------------|
    
    
    F5 F5(type 2) Eb F Gb F5
    +E E E E E E E E E E E E E E E E
    | | | | | | | | | | | | | | | |
    / / / / / / / / / / / / o o o /
    
    ~~~~~~~
    S S S S E S S E S S S S E +Q +E +E +E +E E E
    |-------------------------------|----------------------------20b23==|
    |-------------------------------|------------------------(0)--------|
    |----------8--------------------|------------------------(0)--------|
    |--8p4-7p4---7p4-8-7p4-8--------|-----------------------------------|
    |------------------------0-6b8==|=(6)r==(6)-(6)-(6)-(6)/------------|
    |-------------------------------|-----------------------------------|
    
    
    F5(type 2)
    +E E E E E E E E
    | | | | | | | |
    / / / / / / / /
    
    ~~~~~
    +Q +E Q +E +E E
    |-(20)r==(20)-20b23====(20)r(20)-20b23===|
    |----------------------------------------|
    |----------------------------------------|
    |----------------------------------------|
    |----------------------------------------|
    |----------------------------------------|
    
    
    Eb F Gb5
    E E E E E E E E
    | | | | | | | |
    / / / / o o / /
    
    ~~~~~~~~~ ~~~~~~~~~
    +E +E +E +E +E E E E
    |-(20)-(20)r(20)b23==(20)-(20)r-x⁄--------|
    |-------------------------------x⁄--------|
    |----------------------------------0-[14]-|
    |-----------------------------------------|
    |-----------------------------------------|
    |-----------------------------------------|
    
    
    F5F5(type 2) A5/E
    +E E E E E E E E E E E E E E E E
    | | | | | | | | | | | | | | | |
    / / / / / / / / / / / / / / / /
    
    ⁄7
    +Q. E +Q +Q +E +Q. E E E E
    |---------------------------------|------------------------|
    |---------------------------------|------------------------|
    |-(14)-----[14]b19==(14)---(14)---|-(14)-(14)r-------------|
    |---------------------------------|----------------x-x-x---|
    |---------------------------------|----------------x-x-x---|
    |---------------------------------|----------------x-x-x-0-|
    
    
    Gtr II
    ~~~~~~~~~~~
    E E +Q Q +Q +E E +E E +E E E E
    |-----------------15--(15)--|-(15)-------------13-(13)----------|
    |---------------------------|--------------------------15----15-|
    |---14b16==(14)r------------|------14pb15r(14)------------14----|
    |---------------------------|-----------------------------------|
    |---------------------------|-----------------------------------|
    |---------------------------|-----------------------------------|
    |
    | Gtr I
    | Q Q H +W
    |------------------3--------|--(3)------------------------------|
    |------------0-----3--------|--(3)------------------------------|
    |-0----------0-----0--------|--(0)------------------------------|
    |-0-------------------------|--(0)-----------------(0)--0-----2-|
    |---------------------------|-----------------------------------|
    |-3-------------------------|--(3)-----------------(3)----------|
    W +H +E E E E
    
    
    ⁄3.5
    ~~
    E E Q E E E E E E E E +E E +E E
    |-----------------12----------|-------------------------------|
    |----------15-----------15-12-|-------------------------------|
    |-14b16-12-14b16-----14-------|-14p=12--------------------12--|
    |-----------------------------|-------------------------------|
    |-----------------------------|--------14-10-(10)-------------|
    |-----------------------------|---------------------0-(0)-----|
    |
    | W +H +E E Q
    |-(3)-------------------------|-(3)-----------(3)-------------|
    |-(3)-------------------------|-(3)-----------(3)-------------|
    |-(0)-------------------------|-(0)-----------(0)---0---------|
    |--3--------------------------|--2------------(2)---0------5--|
    |-----------------------------|------------3--(3)------0---5--|
    |-----------------------------|----------------------------3--|
    Q. E +E E E E
    
    w/Rhy Fig 2
    ~~~~ ~~ ~~~~~~~
    +Q a E E Q E E E +Q E +Q. +E
    |---------------------------|-------------------------------|
    |---------------------------|-------------------------------|
    |-(12)---12s10----10---12-x-|-9b10==(9)r---[9]-(9)-----(9)⁄-|
    |--------------12-----------|-------------------------------|
    |---------------------------|-------------------------------|
    |---------------------------|-------------------------------|
    
    
    ~~~~~~~~~~~~~~~~~~~~~~ ~~
    E S S E E E E Q +Q +Q Q E E
    |-------------------------------|-------------------------------|
    |-------------------------------|-------------------------------|
    |-------------------------------|---------------------------12--|
    |----------8b8.5----10-8b9------|-------------------------------|
    |---/10-10-------10--------10---|-(10)------(10)⁄---------------|
    |-x-----------------------------|-------------------------------|
    
    
    ~~~~ ~~~~~~~
    +Q a E E E +E E E E E +E E +Q +Q
    |------------------------------------|----------------------------------------|
    |-----------------11b12==(11)r-------|-11b11.5-11b12==(11)r-------------------|
    |-(12)---12s10-----------------12-10-|----------------------12-(12)---(12)⁄---|
    |--------------12--------------------|----------------------------------------|
    |------------------------------------|----------------------------------------|
    |------------------------------------|----------------------------------------|
    
    
    ~~ ~~ ~~
    E E E E E E a E E Q Q Q E E
    |-----------------------------------|---------------------------|
    |-----------------------------------|---------------------------|
    |-----------------------------------|-----------------------12--|
    |-------8b8.5----10-8b9-------------|---------------------------|
    |-x-/10-------10--------8s10-----10-|-10⁄-----------------------|
    |-----------------------------------|---------------------------|
    
    w/Rhy Fig 2 (1st 7 bars)
    ~~~~ ~~~~ ~~~~~~
    +Q a E E Q E E E +Q E +Q. +E
    |-----------------------------|-------------------------------|
    |-----------------------------|-------------------------------|
    |-(12)---12s10----[10]---12-0-|-[9]b10==(9)r---9-(9)-----(9)⁄-|
    |--------------12-------------|-------------------------------|
    |-----------------------------|-------------------------------|
    |-----------------------------|-------------------------------|
    
    
    PM ~~ ~~~
    E E E E E E E E Q Q Q E E
    |-------------------------------|--------------------------|
    |-------------------------------|--------------------------|
    |-------------------------------|--------------------------|
    |---------8b8.5----10-8b9-------|----------------------/17-|
    |-(0)-/10-------10--------10-10-|-10⁄----------------------|
    |-------------------------------|--------------------------|
    
    
    ~~~~
    +Q a E E Q E E E Q E +E. +S Q
    |-------------------------------|-------------------------------------|
    |-------------------------------|-------------------------------------|
    |-----------------15b16---------|-15b15.5-15b16-----------------------|
    |-(17)---17p15------------17-15-|-----------------17-(17)---(17)/-----|
    |--------------17---------------|-------------------------------------|
    |-------------------------------|-------------------------------------|
    
    |-w/Rhy Fill 1
    ~~~~~~~
    E E E E E E E E Q +Q H
    |----------------------------|---------------------------|
    |------15----17-15-----------|---------------------------|
    |------15-17-17--------------|---------------------------|
    |-x-17----17-------17-----17-|-17---(17)⁄----------------|
    |----------------------------|---------------------------|
    |----------------------------|---------------------------|
    
    w/Rhy Fig 3
    ~~~~~~
    Q E E E E E E E E E E +Q E E
    |----------------------------|---------------------|
    |----------------------------|---------------------|
    |----------------------------|---------------------|
    |--------------5b5.5-7---7b9-|---------5-(5)---7p5-|
    |-------/7-------------------|---7-----------------|
    |----------(8)---------------|-----(8)-------------|
    
    
    ~ PM
    H +Q. a E +E E E E Q E E
    |---------------------------|---------------------|
    |---------------------------|---------------------|
    |---------------------------|-----5---------------|
    |-[7]b8========(7)r-----7h8-|-(8)---7-[7]-5---7-5-|
    |---------------------------|---------------------|
    |---------------------------|---------------------|
    
    
    ~~~~~~ ~~~~~~~~~
    Q E E E E E E E E E E +Q E E S E. +H E E
    |--------------------------|-------------------|-------------------------|
    |--------------------------|-------------------|-------------------------|
    |--------------------------|-------------------|-------------------------|
    |------------5b5.5-7---7b9-|-------5-(5)---7-5-|--7--7----(7)-------7⁄-x-|
    |-------/5-x---------------|---7p5-------------|-------------------------|
    |--------------------------|-------------------|-------------------------|
    
    ⁄7
    a a E E +H. E E E E E E E E
    |---------[7]-(7)---------------|----------------------------------------|
    |-----[7]-----------------------|--x⁄------------------------------------|
    |---x---------------------------|--x⁄---------12b12.5-14b14.5---14b16----|
    |-x-----------------------------|-------/14------------------------------|
    |-------------------------------|----------------------------------------|
    |-------------------------------|-----0----------------------------------|
    
    
    ~~~~~~~
    E E E E +Q E E W E E +Q Q a E E
    |--------------------------|---------|----------------------------------|
    |--------------------------|---------|-15--------------13---------------|
    |---------12-(12)----14p12-|-14b15---|----14b15r(14)-------14s12-14b16==|
    |----14--------------------|---------|----------------------------------|
    |--------------------------|---------|----------------------------------|
    |--------------------------|---------|----------------------------------|
    
    
    ~~~~~~~
    +Q Q E E E E E E E E +Q E E
    |----------------------------|-------------------------|
    |----------------------------|-------------------------|
    |-(14)r--------12-14---14b16-|--------12-(12)---14-12--|
    |---------12-----------------|---12--------------------|
    |----------------------------|-------------------------|
    |----------------------------|-------------------------|
    
    
    ⁄1/ /1⁄ ⁄1/ /1⁄ ⁄1/ /1⁄ ⁄1/ /1⁄ ⁄1/
    |------3------| |------3------| |------3------|
    Q +E +E +E +E +E +E +E +E +E
    |-------------------------------------------------------------------|
    |-------------------------------------------------------------------|
    |-14----(14)--(14)----(14)--(14)--(14)----(14)--(14)--(14)----(14)--|
    |-------------------------------------------------------------------|
    |-------------------------------------------------------------------|
    |-------------------------------------------------------------------|
    
    
    ⁄7
    +E +E +Q +Q +Q W W W
    |-----------------------------|----------|----------|-------------|
    |-----------------------------|----------|----------|-------------|
    |-(14)-(14)-(14)--(14)--(14)--|----------|----------|-------------|
    |-----------------------------|----------|----------|-------------|
    |-----------------------------|----------|----------|-------------|
    |-----------------------------|----------|----------|-------------|
    |
    | Q Q H W W H Q E E
    |-----------------------------|----------|----------|-------------|
    |-----------------------------|----------|----------|-------------|
    |---7-------------------------|----------|----------|-------------|
    |---7-------------------------|----------|----------|-----------5-|
    |---5-------------------------|----------|----------|-----------5-|
    |-----------------------------|----------|----------|-----------3-|
    
    w/Rhy Fig 2 x2
    S S S S S S S S S S S S S S S S
    |--7p=3-7p3---7p3---7p3-7p3---7p3---|
    |-----------6-----6---------6-----6-|
    |-----------------------------------|
    |-----------------------------------|
    |-----------------------------------|
    |-----------------------------------|
    
    
    
    S S S S S S S S S S S S S S S S S S S S S S S S S S S S S S S S
    |-7p3-7p3---7p3----6p=3-6p3---6p3---|-6p3-6p3---6p3---6p3-6p3---6p3---|
    |---------6-----5-----------5-----6-|---------5-----5---------5-----5-|
    |-----------------------------------|---------------------------------|
    |-----------------------------------|---------------------------------|
    |-----------------------------------|---------------------------------|
    |-----------------------------------|---------------------------------|
    
    
    
    S S S S S S S S S S S S S S S S
    |-6p==3--6p=3---6p3----7p=3-7p3---7p3---|
    |-------------5-----5-----------6-----6-|
    |---------------------------------------|
    |---------------------------------------|
    |---------------------------------------|
    |---------------------------------------|
    
    
    
    S S S S S S S S S S S S S S S S S S S S S S S S S S S S S S S S
    |--8p=3---7p3---8p3---7p3---8p3---7p|=3---8p3---6p3----6p=3---6p3----------|
    |-------6-----3-----6-----6-----6---|---6-----6-----5-------5-----5-3-6b8==|
    |-----------------------------------|--------------------------------------|
    |-----------------------------------|--------------------------------------|
    |-----------------------------------|--------------------------------------|
    |-----------------------------------|--------------------------------------|
    
    
    
    ⁄2/
    ~~~~~~
    +Q +S +S S S S S E +Q +Q E E +Q E E
    |-------------------3----------------------|----------------------------|
    |-(6)r==(6)b8==(6)r---6p3-6----------------|-----------------------17h==|
    |---------------------------5pb7==(5)r=====|=(5)---3--------------------|
    |------------------------------------------|-------------5-(5)----------|
    |------------------------------------------|----------------------------|
    |------------------------------------------|----------------------------|
    
    
    
    ⁄2/ ⁄2/ ⁄2/ ⁄2/ ⁄2/ ⁄2/ ⁄2/ ⁄2/ ⁄2/ ⁄2/
    ~~~~~~~~~
    E +E E +E E +E E E E E E E +Q. E
    |-----------------------------------------|----------------------------|
    |-18---(18)p17---(17)p15---(15)h17p==15h==|=18p17-----------------17h==|
    |-----------------------------------------|-------x-15---(15)----------|
    |-----------------------------------------|----------------------------|
    |-----------------------------------------|----------------------------|
    |-----------------------------------------|----------------------------|
    
    
    ⁄2/ ⁄2/ ⁄2/ ⁄2/ ⁄2/ ⁄2/ ⁄2/ ⁄2/ ⁄2/ ⁄2/
    ~~~~~~~~~
    E +E E +E E +E E E E E E E +Q. E
    |-----------------------------------------|-------------------------------|
    |-18---(18)p17---(17)p15---(15)h17p==15h==|=18p==17------------------17h==|
    |-----------------------------------------|----------x-15---(15)----------|
    |-----------------------------------------|-------------------------------|
    |-----------------------------------------|-------------------------------|
    |-----------------------------------------|-------------------------------|
    
    
    
    ⁄2/ ⁄2/ ⁄2/ ⁄2/ ⁄2/ ⁄2/ ⁄2/ ⁄2/ ⁄2/ ⁄2/
    ~~~~~~~~~
    E +E E +E E +E E E E E E E +Q. E
    |-----------------------------------------|-----------------------------|
    |-18---(18)p17---(17)p15---(15)h17p==15h==|=18p17-----------------17h===|
    |-----------------------------------------|-------x-15---(15)-----------|
    |-----------------------------------------|-----------------------------|
    |-----------------------------------------|-----------------------------|
    |-----------------------------------------|-----------------------------|
    
    
    
    ⁄2/ ⁄2/ ⁄2/ ⁄2/ ⁄2/ /2.5⁄ ⁄7 |
    E +E E E E +E E +S +S +Q. E +Q E E
    |------------------------------------------------|-------------------------18-|
    |-18---(18)p17-------15---(15)--18b20==(18)-(18)-|-(18)r-------------------17-|
    |------------------------------------------------|----------------------------|
    |----------------h17-----------------------------|----------------------------|
    |------------------------------------------------|-------------x-(x)----------|
    |------------------------------------------------|-------------x-(x)---(0)----|
    
    
    w/Rhy Fig 1 to fade
    ~~~~~~
    +W +E +E E E +Q E E
    |-(18)---------------|-(18)b19==(18)r-15------------------18-|
    |-(17)---------------|-(17)-----(17)-----18b20==(18)r--------|
    |--------------------|---------------------------------------|
    |--------------------|---------------------------------------|
    |--------------------|---------------------------------------|
    |--------------------|---------------------------------------|
    
    
    ~~~~~ ~~~~~~~~~~~~
    +Q. E +Q Q Q E E +Q E S S
    |-(18)-----18-(18)---18---|-18-------15--------------------17p15-|
    |----------17-(17)--------|-------------18b20==(18)r-------17p15-|
    |-------------------------|--------------------------------------|
    |-------------------------|--------------------------------------|
    |-------------------------|--------------------------------------|
    |-------------------------|--------------------------------------|
    
    
    
    E. S S S E +S S S S E. S
    |-18b18.5---15----15-18b18.5==(18)r-15----15--------------|
    |-17b17.5---15h17-15-17b17.5==(17)r-15h17----17b17.5---15-|
    |---------------------------------------------------------|
    |---------------------------------------------------------|
    |---------------------------------------------------------|
    |---------------------------------------------------------|
    
    
    S S E +S S S S E. S S S E
    |-------18b18.5==(18)r-------15--------------18----18b18.5==|
    |-17-15-17b17.5==(17)r-15-17----17b17.5---15----17-17b17.5==|
    |-----------------------------------------------------------|
    |-----------------------------------------------------------|
    |-----------------------------------------------------------|
    |-----------------------------------------------------------|
    
    
    +S S S S E. S S S E +S S S S
    |-(18)r-------15-18b18.5------------18b18.5==(18)r---15-17-15-|
    |-(17)r-15-17----17b17.5---15-17-15-17b17.5==(17)r---15-17-15-|
    |-------------------------------------------------------------|
    |-------------------------------------------------------------|
    |-------------------------------------------------------------|
    |-------------------------------------------------------------|
    
    
    ⁄1/ ⁄1/ ⁄1/ |
    E. S E E +E E E E +Q +E +E +E E E E
    |-18b18.5------18-----18b19==(18)r-15⁄--------|----------------------3-3-6-|
    |-17b17.5---15-17-----17b18==(17)r------------|------------------------3-6-|
    |----------------------------------------5b7==|=(5)---(5)--(5)--(5)r-------|
    |---------------------------------------------|----------------------------|
    |---------------------------------------------|----------------------------|
    |---------------------------------------------|----------------------------|
    
    
    E +E E S S +E E E E
    |-----------------------------|
    |-------------5-(5)-3b3.5-5-3-|
    |-5b7r(5)-3---5-(5)-3b3.5-5-3-|
    |-----------5-----------------|
    |-----------------------------|
    |-----------------------------|
    
    +E +E E E E E E E E E E E +E E E E
    |-------------------------------|----------------------------------|
    |-(3)b3.5==(3)r-5-3-5b5.5-5-3-5-|-3b3.5-----3b3.5----------------6-|
    |-(3)b3.5==(3)r-5-3-5b6---5-3-5-|-3b4---(3)-3b4----5-(5)-----/7--7-|
    |-------------------------------|--------5---------5-(5)--------|
    |-------------------------------|----------------------------------|
    |-------------------------------|----------------------------------|
    
    
    ~~~~~~ ~
    E E E E E Q E Q E E +E E E E
    |---------------------|---------------------|
    |--8--6-6-6-6-------6-|-6⁄-----5-(5)---3----|
    |--7--7-7-7-7-[7]---7-|-7⁄-----5-(5)---3-3--|
    |---------------------|------5-------5------|
    |---------------------|---------------------|
    |---------------------|---------------------|
    
    
    ~~~~~~ T T
    |--3--|
    +E E E E E E E E E E E a E +E +E E S S S
    |-------------------------------|----------------------------13p10-13p|
    |-------------------------------|-------------------------------------|
    |-(3)-5-3b3.5---5-3b3.5---------|-------------------------------------|
    |-------------5---------5-----5-|-3b4---------3h5-(5)-(5)⁄------------|
    |-------------------------------|-----5-3-----------------------------|
    |-------------------------------|-------------------------------------|
    
    
    T T T T T T T T T T T T
    |-------6-------| |------6-------| |------6-------| |------6-------|
    S S S S S S S S S S S S S S S S S S S S S S S S
    |-10--13p10-13p10-13p10-13p10-13p10-13p10-13p10-13p10-13p10-13p10-13p10-13p==|
    |----------------------------------------------------------------------------|
    |----------------------------------------------------------------------------|
    |----------------------------------------------------------------------------|
    |----------------------------------------------------------------------------|
    |----------------------------------------------------------------------------|
    
    
    T T T T T T T T T T T T
    |------6-------| |-----6------| |-----6------| |-----6-----|
    S S S S S S S S S S S S S S S S S S S S S S S S
    |-10-13p10-13p10-13-13p10-12p8-12p8-12p=8-12p8-12p8-12p8-13p6-10p6-|
    |------------------------------------------------------------------|
    |------------------------------------------------------------------|
    |------------------------------------------------------------------|
    |------------------------------------------------------------------|
    |------------------------------------------------------------------|
    
    
    T T T
    |-----6-----| |----6----| |-3-|
    S S S S S S S S S S S S S S S E E E
    |-10p6-10p6-10p6-10p6-8p3h5-8p5h7-8s(17)-----|
    |--------------------------------------------|
    |----------------------------------------x---|
    |----------------------------------------x---|
    |--------------------------------------------|
    |------------------------------------------0-|
    
    
    ~~~~~~~~~~~
    a Q E E +E +E E E
    |-----------------------------------------------|
    |------------------/18b20==(18)-(18)r⁄----------|
    |-(2)s14⁄------(0)-------------------------5b7==|
    |--------------(0)------------------------------|
    |-----------------------------------------------|
    |--------------------------------------(0)------|
    
    
    ~~~~~~~~~~
    +Q +Q +E E E +E E Q E E +E E E
    |------------------------------|-----------------------------|
    |------------------6-----------|-6-------6----------6--------|
    |-(5)---(5)---(5)r---5b7==(5)r-|---5b7------5b7-(5)---[5]b7==|
    |------------------------------|-----------------------------|
    |------------------------------|-----------------------------|
    |------------------------------|-----------------------------|
    
    
    +E E E +S +S E E +E E
    |--------------------------------------|
    |------6----------------6------------6-|
    |-(5)r---[5]b7==(5)r(5)---5b7r(5)------|
    |--------------------------------------|
    |--------------------------------------|
    |--------------------------------------|
    
    
    E +E E E +E E E a E E E Q E Q +E
    |-----------------------------3---------|-----15-18b19---18-18b18.5====(18)r-|
    |-----------6---------------3-----------|-15-----18b20---18-18b18.5====(18)r-|
    |-5b7==(5)r-------5b7==(5)r-----5s17b19-|------------------------------------|
    |---------------------------------------|------------------------------------|
    |---------------------------------------|------------------------------------|
    |---------------------------------------|------------------------------------|
    
    
    ~~~~~~~~~~~~ ~~~~~ ~~~~~ ~~~~~ ~~~~~~~
    E S S E E +E E Q E Q E Q E E
    |-15-------15--------------15---------|-15---------15---------15--------|
    |----18p15----18b20==(18)r----18b20---|----18b20------18b20------18b20==|
    |-------------------------------------|---------------------------------|
    |-------------------------------------|---------------------------------|
    |-------------------------------------|---------------------------------|
    |-------------------------------------|---------------------------------|
    
    
    ⁄2/
    ~~~~~~~~ ~~~~~~~~~~~~
    +E E E E +E +E E E
    |-------15--------------------------0-------|
    |-(18)r-----18-18pb20==(18)-(18)r⁄-----17h==|
    |-------------------------------------------|
    |-------------------------------------------|
    |-------------------------------------------|
    |-------------------------------------------|
    
    
    ⁄2/ ⁄2/ ⁄2/ ⁄2/ ⁄2/ ⁄2/ ⁄2/ ⁄2/ ⁄3/ ⁄2/
    ~~~~~~~~~
    E +E E +E E +E E E E E E E +Q. E
    |-----------------------------------------|----------------------------|
    |-18---(18)p17---(17)p15---(15)h17p==15h==|=18p17-----------------17h==|
    |-----------------------------------------|-------x-15---(15)----------|
    |-----------------------------------------|----------------------------|
    |-----------------------------------------|----------------------------|
    |-----------------------------------------|----------------------------|
    
    
    ⁄2/ ⁄2/ ⁄2/ ⁄2/ ⁄2/ ⁄2/ ⁄2/ ⁄2/ ⁄3/ ⁄2/
    ~~~~~~~~~
    
    E +E E +E E +E E E E E E E +Q. E
    |-------------------------------------------|--------------------------------|
    |-18---(18)p17---(17)p15---(15)h17p====15h==|=18p17--------------------17h===|
    |-------------------------------------------|-------x-----15---(15)----------|
    |-------------------------------------------|--------------------------------|
    |-------------------------------------------|--------------------------------|
    |-------------------------------------------|--------------------------------|
    
    
    ⁄2/ ⁄2/ ⁄2/ ⁄2/ ⁄2/ ⁄2/ ⁄2/ ⁄2/ ⁄3/ ⁄7__/
    ~~~~~~~~~
    E +E E +E E +E E E E E E E +Q. a E
    |-----------------------------------------|-----------------------------|
    |-18---(18)p17---(17)p15---(15)h17p==15h==|=18p17-----------------------|
    |-----------------------------------------|-------x-15---(15)-----0---0-|
    |-----------------------------------------|-----------------------------|
    |-----------------------------------------|-----------------------------|
    |-----------------------------------------|-----------------------------|
    
    
    ⁄7 ⁄7
    T
    +Q. E +H +Q Q Q E E
    |-------------------------|----------------------------|
    |-------------------------|----------------------------|
    |-(0)-----0(12)-(0)-------|-(0)------0---------------0-|
    |-------------------------|----------0---------------0-|
    |-------------------------|-----------------x⁄---------|
    |-------------------------|-----------------x⁄----0----|
    
    
    PM---------------| ~~~~~~ PM-
    E E E E E E E E E E E E +E E E E
    |---------------------|-------------------------|
    |-----6-/10-6---3-5-3-|-5b6-5b6-3-5-(5)-5-(0)-5-|
    |-/7--7-/10-7-7-3-5-3-|-5b7-5b7-3-5-(5)-5-----5-|
    |-/9----------9-------|-------------------------|
    |---------------------|-------------------------|
    |---------------------|-------------------------|
    
    
    -------------------| ~~~~~~~PM PM
    E E E E E E E E a +E +E E E +E E E E
    |---------------------|----------------------------------|
    |-6-6-5-3-3-3-5-----3-|-5b6==(5)r(5)-----------------5-6-|
    |-7-7-5-3-3-3-5-----3-|-5b7==(5)r(5)-3---------------5-7-|
    |---------------------|--------------------[5]-(5)-5-----|
    |---------------------|----------------------------------|
    |---------------------|----------------------------------|
    
    PM---------------------|
    E E E E E E E S S E E E E +E E E E
    |---------------------|---------------------|
    |--6----5---3---3-x-3-|-6p5-3-/5-(5)-5-0-/6-|
    |--7--7-5-3-----3-x-3-|-7p5-3-/5-(5)-5---/7-|
    |-------------5-------|---------------------|
    |---------------------|---------------------|
    |---------------------|---------------------|
    
    
    ~~~~~~
    E E E E E E E E E +E E E +E E E E
    |-------------------|---------------------------0-----|
    |-6-6-5---3---3-----|------------------------0--0--/6-|
    |-7-7-5---3-5-3-[5]-|-[5]b6r(5)-[5]b6--------------/7-|
    |-------0---5-------|------------------5-(5)----------|
    |-------------------|---------------------------------|
    |-------------------|---------------------------------|
    
    
    PM PM ~~~~~~
    E E E E E E E E E E E E +E E E E
    |-------------------|--------------------|
    |--6--6-5-3-3---3-5-|-/6p5-3-5-(5)-5-3-6-|
    |--7--7-5-3-3-5-3-5-|-/7p5-3-5-(5)-5-3-5-|
    |-------------5-----|--------------------|
    |-------------------|--------------------|
    |-------------------|--------------------|
    
    
    PM PM ~~~~~~~
    E E E E E E E E E +E E E +Q E E
    |-----5---------------|--------------------------------|
    |-6-6-6---3---3b3.5-5-|-5b6r(5)-3------------------/6--|
    |-5-5---5-3---3b3.5-5-|-5b6r(5)-3--------------[3]-/7--|
    |-----------5---------|---------------[5]-(5)----------|
    |---------------------|--------------------------------|
    |---------------------|--------------------------------|
    
    
    ~~~~~~
    E E E S S E E E E E +E E E +E E E E
    |---------------------|---------------------------|
    |--6--5-5-x-x-3-5-3-5-|-5pb6r(5)-3-5-(5)-------/6-|
    |--7--5-5-x-x-3-5-3-5-|-5pb6r(5)-3-5-(5)-5-----|
    |---------------------|------------------5--------|
    |---------------------|---------------------------|
    |---------------------|---------------------------|
    
    
    ~~~~~~ PM
    E E E E E E E E E +E E E +E E E E
    |-----------------|---------------------------------|
    |-6-3-5-3-3-------|---------------------------------|
    |-3-3-5---3-5-3---|---------------------------------|
    |-----------5-3-5-|-----------------------------|
    |---------------5-|-3b4r(3)-1b1.5-------------------|
    |-----------------|----------------3-(3)-x--x-------|
    
    
    E E E E Q. E E E E E Q. S S
    |------------------------------|-----------------------------|
    |------------------------------|-----------------------------|
    |------------------|--------------------|
    |---------------------------|-----------------------|
    |------------------------------|-----------------------------|
    |------------------------------|-----------------------------|
    
    
    ⁄7
    ~~~~~
    +W +Q Q E Q.
    |-------------------------|-----------------------------*|
    |-------------------------|-----------------------------*|
    |-()-------------------|-()-----------------------*|
    |-------------------------|-----------------------------*|
    |-------------------------|-----------------------------*|
    |-------------------------|---------(8)s======0--0------*|
    

    Тональность:

    Нет текста!



    Назад
    Рекомендуем посмотреть другие песни исполнителя «Satriani Joe»:

    • Комментарии Facebook ()
    • Комментарии ВКонтакте



    Добавить в Избранное Браузера
    Сохранить здесь Очистить


    x

    0


    +
    -

    +
    -

    -

    Авторизация





    Зарегистрироваться

    M

    Дата и время

    • 19:46:23
       

    Социальные ссылки


    Наши приложения

    • Muzbank App Play Market
    • Muzbank Amazon App