MUZBANK



A Most Complete Bank Of Music Information

МУЗЫКАЛЬНО-ИНФОРМАЦИОННЫЙ БАНК

Поиск по сайту







    SSatriani Joe • The Crush Of Love (аккорды и текст - chords & lyrics)


    391

    Print

    Видео «The Crush Of Love (Satriani Joe)»

    Видео клипы к песне подбираются автоматически сайтом youtube. Возможны некоторые несоответствия клипов песне.

    ↑ Спрятать рекламу ↑



    Download


    
    e|----------------------|---------------^--^-----------|-----------------------------|
    B|-------13---13--------|-------12-13-15^15^--15-13----|-----------------------------|
    G|-14-14---14---14-12-14|-14-14--------------------14~-|14~14~-14 12-14~-------------|
    D|----------------------|------------------------------|-----------------------------|
    A|----------------------|------------------------------|----------------12w14w15w17w-|
    E|----------------------|------------------------------|-----------------------------|
    
    e|----------------------|-----------15-13-12----12-----|-12-17-12-12121212-17-12-12~-|
    B|-------13---13--------|------12-13---------15----13~-|-----------------------------|
    G|-14-14---14---14-12-14|-14-14------------------------|-----------------------------|
    D|----------------------|------------------------------|-----------------------------|
    A|----------------------|------------------------------|-----------------------------|
    E|----------------------|------------------------------|-----------------------------|
    				     Bend to 17
    e|----------------------|---------------^--^-----------|-----------------------------|
    B|-------13---13--------|-------12-13-15^15^--15-13----|-----------------------------|
    G|-14-14---14---14-12-14|-14-14--------------------14~-|14~14~-14 12-14~-------------|
    D|----------------------|------------------------------|-----------------------------|
    A|----------------------|------------------------------|----------------12w14w15w17w-|
    E|----------------------|------------------------------|-----------------------------|
    
    e|----------------------|-----------15-13-12----12-----|-12-17-12-12121212-17-12-12~-|
    B|-------13---13--------|------12-13---------15----13~-|-----------------------------|
    G|-14-14---14---14-12-14|-14-14------------------------|-----------------------------|
    D|----------------------|------------------------------|-----------------------------|
    A|----------------------|------------------------------|-----------------------------|
    E|----------------------|------------------------------|-----------------------------|
    
    Then the next phrase you need a wah wah effect. 
    
    e|------------------|---------------|------------------------|---------------------|
    B|------------------|---------------|------------------------|---------------------|
    G|-2/---4/--5/--9~--|-2/--4/--5-7~w-|-10-10975/-75/7/9-9-|-7h9p7~~-5-2p5h2-----|
    D|------------------|---------------|------------------------|---------------------|
    A|------------------|---------------|------------------------|---------------------|
    E|------------------|---------------|------------------------|---------------------|
    
    e|--------------------------|--------------------------------------------|---------|
    B|-10~10~8~-----------------|--------------------------------------------|---------|
    G|---------10~9~7~5-7~~-----|-5/7/9/10~-9~7---7/9/10~-9-75~/-75/7~9--9~|---------|
    D|----------------------7w5w|--------------------------------------------|---------|
    A|--------------------------|--------------------------------------------|---------|
    E|--------------------------|--------------------------------------------|---------|
    
    e|---------------------------------------------|
    B|-8h10p8-8~-----------------------------------|
    G|----------9~~-7~~-5h7p5----------------------|
    D|------------------------5h7p5----------------| Full neck slide to intro
    A|------------------------------5h7p5----------|
    E|-------------------------------------5~------|
    
    
    Main Riff
    
    				     Bend to 17
    e|----------------------|---------------^--^-----------|-----------------------------|
    B|-------13---13--------|-------12-13-15^15^--15-13----|-----------------------------|
    G|-14-14---14---14-12-14|-14-14--------------------14~-|14~14~-14 12-14~-------------|
    D|----------------------|------------------------------|-----------------------------|
    A|----------------------|------------------------------|----------------12w14w15w17w-|
    E|----------------------|------------------------------|-----------------------------|
    							Fast Legato Lick
    e|----------------------|------------15-13-12----12----|----5-----------5-------------------|
    B|-------13---13--------|------12-13----------15---13--|-8^--5h8p5----5---8p5---------------|
    G|-14-14---14---14-12-14|-14-14------------------------|-----------7^---------7^-5----------|
    D|----------------------|------------------------------|---------------------------7p5------|
    A|----------------------|------------------------------|-------------------------------7p3-5|
    E|----------------------|------------------------------|------------------------------------|
    						    Pre-Bend
    e|----------------------|------------------------------|-^-----15----15-----15-----15---15---15---15-------|
    B|-------13---13--------|-------12-13-15^15^--15-13----|13/15^---15^----15^----15^----15^-15^--15^--13/15^-|
    G|-14-14---14---14-12-14|-14-14---------------------14~|---------------------------------------------------|
    D|----------------------|------------------------------|---------------------------------------------------|
    A|----------------------|------------------------------|---------------------------------------------------|
    E|----------------------|------------------------------|---------------------------------------------------|
    
    e|----------------------|-------------15-13-12---------|
    B|-------13---13--------|-------12-13----------15-13---|
    G|-14-14---14---14-12-14|-14-14---------------------14~|
    D|----------------------|------------------------------|
    A|----------------------|------------------------------|
    E|----------------------|------------------------------|
      Fast lick
    e|-1515-13h15p1313-12h13p1212-10h12p1010-8h10p88-7h8p77-5h7p55-|-5h7p5------5-------------|
    B|-------------------------------------------------------------|------8-5^-8--8p5--5--5---|
    G|-------------------------------------------------------------|-----------------5--8-----|
    D|-------------------------------------------------------------|-----------------------7-5|
    A|-------------------------------------------------------------|--------------------------|
    E|-------------------------------------------------------------|--------------------------|
    
    Solo:
    
    e|-22^22-20-22~-22p20h22~-22^-22-22p20h22 22^--22^-22^-|
    B|-----------------------------------------------------|
    G|-----------------------------------------------------|
    D|-----------------------------------------------------|
    A|-----------------------------------------------------|
    E|-----------------------------------------------------|
    
    e|-20~-19-17---17------------17----------17-----------------|
    B|----------20^---17-20---17---20p17---17--20p17---17-------|
    G|---------------------19^----------19^---------19^---20p19-|
    D|----------------------------------------------------------|
    A|----------------------------------------------------------|
    E|----------------------------------------------------------|
      (note, Joe doesnt use fret tapping here, but i find it helps)
    e|--------------------------------------------------------------------------------|
    B|t22p17h20-t22p17h20-t22p17h20-t22p17h20-t22p17h20-t22p17h20-t22p17h20-t22p17h20-|
    G|--------------------------------------------------------------------------------|
    D|--------------------------------------------------------------------------------|
    A|--------------------------------------------------------------------------------|
    E|--------------------------------------------------------------------------------|
    				Same riff as start of 2nd solo
    e|-------------------------|-22^22-20-22~-22p20h22~-22^-22-22p20h22 22^--22^-22^-|
    B|-------------------------|-----------------------------------------------------|
    G|-17h19p17h19p17----------|-----------------------------------------------------|
    D|---------------19p17-19~-|-----------------------------------------------------|
    A|-------------------------|-----------------------------------------------------|
    E|-------------------------|-----------------------------------------------------|
    
    e|-15^--13h16p1312-------------------------------------------|
    B|----------------13-----------------------------------------|
    G|-------------------14p12p9---------------------------------|
    D|---------------------------10h12p10p9p7--7h9h10p9p7--------|
    A|---------------------------------------10----------10p8h10-|
    E|-----------------------------------------------------------|
    
    e|----------------------|------------------------------------|
    B|-------------------15~|------------------------------------|
    G|----------------------|------------------------------------|
    D|-----9-9^-9--9--------|------------------------------------|
    A|--------------10------|------------------------------------|
    E|-3~-------------------|------------------------------------|
    
    Second Phase:
    
    e|------------------|---------------|------------------------|---------------------|
    B|------------------|---------------|------------------------|---------------------|
    G|-2/---4/--5/--9~--|-2/--4/--5-7~--|-10-10975/-75/7/9-9-|-7h9p7~~-5-2p5h2-----|
    D|------------------|---------------|------------------------|---------------------|
    A|------------------|---------------|------------------------|---------------------|
    E|------------------|---------------|------------------------|---------------------|
    
    e|-----------------|-------------------------------------|-------------------------|
    B|-----------------|-6/8~~--65/6~--5/6~5---------10~-8~-|-------------------------|
    G|-2/---4/--5/-9~--|----------------------75~/9---------|-7--5h7p5----------------|
    D|-----------------|-------------------------------------|----------5h7p5----------|
    A|-----------------|-------------------------------------|----------------5h7p5----|
    E|-----------------|-------------------------------------|----------------------5~-|
    
    Main Riff
    
    				     Bend to 17
    e|----------------------|---------------^--^-----------|-----------------------------|
    B|-------13---13--------|-------12-13-15^15^--15-13----|-----------------------------|
    G|-14-14---14---14-12-14|-14-14--------------------14~-|14~14~-14 12-14~-------------|
    D|----------------------|------------------------------|-----------------------------|
    A|----------------------|------------------------------|----------------12w14w15w17w-|
    E|----------------------|------------------------------|-----------------------------|
    							Fast Legato Lick
    e|----------------------|------------15-13-12----12----|----5-----------5-------------------|
    B|-------13---13--------|------12-13----------15---13--|-8^--5h8p5----5---8p5---------------|
    G|-14-14---14---14-12-14|-14-14------------------------|-----------7^---------7^-5----------|
    D|----------------------|------------------------------|---------------------------7p5------|
    A|----------------------|------------------------------|-------------------------------7p3-5|
    E|----------------------|------------------------------|------------------------------------|
    						    Pre-Bend
    e|----------------------|------------------------------|-^-----15----15-----15-----15---15---15---15-------|
    B|-------13---13--------|-------12-13-15^15^--15-13----|13/15^---15^----15^----15^----15^-15^--15^--13/15^-|
    G|-14-14---14---14-12-14|-14-14---------------------14~|---------------------------------------------------|
    D|----------------------|------------------------------|---------------------------------------------------|
    A|----------------------|------------------------------|---------------------------------------------------|
    E|----------------------|------------------------------|---------------------------------------------------|
    		 (Play each note 4 times, speed picking)
    e|----------------------|-------------15-13-12-10-12-8-|-17^^17^^-|
    B|-------13---13--------|-------12-13------------------|----------|
    G|-14-14---14---14-12-14|-14-14------------------------|----------|
    D|----------------------|------------------------------|----------|
    A|----------------------|------------------------------|----------|
    E|----------------------|------------------------------|----------|
    
    
    Rhythm Guitar:
    
    Intro:
    
    e|--8-~---|--7~----|--------|-----------|
    B|--10~---|--8~----|--10~---|-----------|
    G|--9-~---|--9~----|--9-~---|---------7-|
    D|--------|--------|--------|--7-9-10---|x4
    A|--------|--------|--------|-----------|
    E|--------|--------|--------|-----------|
    
    First Phase:
    
    e|----------8-|----------5-|----------5-|---------------------|----------|
    B|-------6----|-------5----|-------6----|--10----------8-/-10-|-8--------|
    G|----9-------|----7-------|----5-------|------9--------------|----7-/-9-|
    D|-7----------|-5----------|-7----------|---------10----------|----------|
    A|------------|------------|------------|---------------------|----------|
    E|------------|------------|------------|---------------------|----------|
    
    Solo Backing:
    
    e|-------|-------|-------|-------|-------|-------|-------|-------|
    B|-------|-------|--0~---|--1~---|-------|-------|--0~---|--1~---|
    G|-------|-------|--0~---|--2~---|-------|-------|--0~---|--2~---|
    D|--3~---|--5~---|--2~---|--2~---|--3~---|--5~---|--2~---|--2~---|
    A|--3~---|--5~---|--2~---|--0~---|--3~---|--5~---|--2~---|--0~---|
    E|--1~---|--3~---|--0~---|-------|--1~---|--3~---|--0~---|-------|
    
    e|--1~---|--3~---|-------|-------|--1~---|---~---|--3~---|---~---|
    B|--1~---|--3~---|--0~---|--1~---|--1~---|---~---|--3~---|---~---|
    G|--2~---|--4~---|--0~---|--2~---|--2~---|---~---|--4~---|---~---|
    D|--3~---|--5~---|--2~---|--2~---|--3~---|---~---|--5~---|---~---|
    A|--3~---|--5~---|--2~---|--0~---|--3~---|---~---|--5~---|---~---|
    E|--1~---|--3~---|--0~---|-------|--1~---|---~---|--3~---|---~---|
    

    Тональность:

    Нет текста!



    Назад
    Рекомендуем посмотреть другие песни исполнителя «Satriani Joe»:

    • Комментарии Facebook ()
    • Комментарии ВКонтакте



    Добавить в Избранное Браузера
    Сохранить здесь Очистить


    x

    0


    +
    -

    +
    -

    -

    Авторизация





    Зарегистрироваться

    M

    Дата и время

    • 23:31:06
       

    Социальные ссылки


    Наши приложения

    • Muzbank App Play Market
    • Muzbank Amazon App