MUZBANK



A Most Complete Bank Of Music Information

МУЗЫКАЛЬНО-ИНФОРМАЦИОННЫЙ БАНК

Поиск по сайту







    SScorpions • Send Me An Angel (аккорды и текст - chords & lyrics)


    789

    Print

    Видео «Send Me An Angel (Scorpions)»

    Видео клипы к песне подбираются автоматически сайтом youtube. Возможны некоторые несоответствия клипов песне.

    ↑ Спрятать рекламу ↑



    Download



    Riff1
    e|----0----------0----------2----------2------|
    h|------5----------5----------3----------3----|
    g|--------4----------4----------4----------4--|
    d|-2------------------------------------------|
    a|------------3----------5----------2---------|
    e|--------------------------------------------|
    
    Riff2
    e|----0----------0----------2------2----------|
    h|------5----------5----------3---------3-----|
    g|--------4----------4----------4-----4---4---|
    d|-2------------------------------------------|
    a|------------3----------5--------------------|
    e|--------------------------------------------|
    
    Riff1
    The wise man said just walk this way
    Riff2
    To the dawn of the light
    Riff1
    The wind will blow into your face
    Riff2
    As the years pass you by
    Hear this voice from deep inside
    It?s the call of your heart
    Close your eyes and your will find
    The passage out of the dark
    
    H#m     E
    Here I am
    C#m          D                   E
    Will you send me an angel
    H#m     E
    Here I am
    C#m          D                   E
    In the land of the morning star
    
    The wise man said just find your place
    In the eye of the storm
    Seek the roses along the way
    Just beware of the thorns
    
    Here I am
    Will you send me an angel
    Here I am
    In the land of the morning star
    
    The wise man said just raise your hand
    And reach out for the spell
    Find the door to the promised land
    Just believe in yourself
    Hear this voice from deep inside
    It?s the call of your heart
    Close your eyes and your will find
    The passage out of the dark
    
    Here I am
    Will you send me an angel
    Here I am
    In the land of the morning star
    Here I am
    Will you send me an angel
    Here I am
    In the land of the morning star
    

    Тональность:

    Нет текста!



    Назад
    Рекомендуем посмотреть другие песни исполнителя «Scorpions»:

    • Комментарии Facebook ()
    • Комментарии ВКонтакте



    Добавить в Избранное Браузера
    Сохранить здесь Очистить


    x

    0


    +
    -

    +
    -

    -

    Авторизация





    Зарегистрироваться

    M

    Дата и время

    • 04:59:35
       

    Социальные ссылки


    Наши приложения

    • Muzbank App Play Market
    • Muzbank Amazon App