MUZBANK



A Most Complete Bank Of Music Information

МУЗЫКАЛЬНО-ИНФОРМАЦИОННЫЙ БАНК

Поиск по сайту







    ССегодня Ночью • Не удержаться (аккорды и текст - chords & lyrics)


    512

    Print

    Видео «Не удержаться (Сегодня Ночью)»

    Видео клипы к песне подбираются автоматически сайтом youtube. Возможны некоторые несоответствия клипов песне.

    ↑ Спрятать рекламу ↑



    Download



    Dm                 G
    1. Задержка дыхания целуй на прощание
      Am                       F
    И дай им телефон, где нас нет.
    
    Последним касанием проверить раскаянье
    Ну что ты будешь делать и с кем
    
    Dm                G
    Довериться запахам, раскинуться веером
    
    Бас:
          Am                     F
    D|----2—0----------2--0-2-0--0-------|
    A|-----------3—0----------------3--0-|
    И взглядом своим выключить свет.
    
    Припев:
    
    Бас:
              Dm
    D|------2-0----2----|
    A|-0-3------------0-|
    Не разрывать шелка,
    
                  G
    D|-2---0------0---2---|
    A|----------3---------|
    E|------------------3-|
    Греться в твоих руках
    
                Am        F
    D|-2-0-------0--2---|
    A|-------3--------0-|
    Падать на дно морей.
    
                 Dm
    D|--------2—0----2---|
    A|-0---3-----------0-|
    Сбиться на пол пути
    
                  G
    D|-2---0------0--2----|
    A|--------3-----------|
    E|------------------3-|
    Там где нас не найти
    
             Am    F
    D|-2-0---0---2-|
    A|-----3-------|
    Не удержаться.
    
    2. Коснуться ресницами, нарушить границы
    И не доедая завтрак курить
    
    Могу для тебя сейчас включить твой любимый джаз
    И просто встать посуду помыть
    
    А хочешь я запросто уйду в кругосветное
    И буду каждый вечер звонить.
    
    
    Припев:   (2 раза)
    
             Dm
    D------2-0----2----|
    A-0-3------------0-|
    Не разрывать шелка,
    
                 G
    D-2---0------0---2---|
    A----------3---------|
    E------------------3-|
    Греться в твоих руках
    
                Am        F
    D|-2-0-------0--2---|
    A|-------3--------0-|
    Падать на дно морей.
    
                 Dm
    D|--------2—0----2---|
    A|-0---3-----------0-|
    Сбиться на пол пути
    
                  G
    D|-2---0------0--2----|
    A|--------3-----------|
    E|------------------3-|
    Там где нас не найти
             Am    F
    D|-2-0---0---2-|
    A|-----3-------|
    Не удержаться.
    
    Проигрыш:
    
    Dm  G  Am  F Dm  G  Am  F
    
    Solo:
             Dm          G           Am   F
    E|-----0---0---0-------0---0-------0-|
    H|---1---3-------3-1-3-------3-1-3---|
    G|-2---------2-----------0-----------|
    
             Dm          G           Am   F
    E|-----0---0---0-------0---0-0------0-|
    H|---1---3-------3-1-3---------3-1-3--|
    G|-2---------2-----------0------------|
    
    Припев: (2 раза)
    

    Тональность:

    Нет текста!



    Назад
    Рекомендуем посмотреть другие песни исполнителя «Сегодня Ночью»:

    • Комментарии Facebook ()
    • Комментарии ВКонтакте



    Добавить в Избранное Браузера
    Сохранить здесь Очистить


    x

    0


    +
    -

    +
    -

    -

    Авторизация





    Зарегистрироваться

    M

    Дата и время

    • 03:18:31
       

    Социальные ссылки


    Наши приложения

    • Muzbank App Play Market
    • Muzbank Amazon App