MUZBANK



A Most Complete Bank Of Music Information

МУЗЫКАЛЬНО-ИНФОРМАЦИОННЫЙ БАНК

Поиск по сайту







    ССерьГа • Ночь (аккорды и текст - chords & lyrics)


    428

    Print

    Видео «Ночь (СерьГа)»

    Видео клипы к песне подбираются автоматически сайтом youtube. Возможны некоторые несоответствия клипов песне.

    ↑ Спрятать рекламу ↑



    Download


    F#madd9 F#m   H7sus4     Hm7
    e|-4-----2------2-------2--|
    H|-2-----2------5-------3--|
    G|-2-----2------2-------2--|
    D|-4-----4------4-------4--|
    A|-4-----4------2-------2--|
    E|-2-----2------2-------2--|
    
       F#m    Hm7                      F#m    Hm7                
    e|--9--------|-------9-7--------|--9--------|-------9-7----------|
    H|-----10----|--7-10-----10-9-7-|-----10----|--7-10-----10-9-7---|
    G|-----------|------------------|-----------|--------------------|
    A|-----------|------------------|-----------|--------------------|
    
      F#m             Hm7                    F#m         Hm7
    e|--------------|---------------------|------------|-----------------|
    H|-10-7--(5p32-|-0)-7-7-----10-9-7---|-10-7---5---|-----------------|
    G|--------------|---------9---------9-|-----------64-2--4h6p4-2-----|
    D|--------------|---------------------|------------|-------------4-2-|
    
        F#m
      Здравствуй, ночь,						
    Hm7                      F#m
      Я так хотел с тобою встретиться, ночь,		
    Hm7         E          A
      На небе звёзды и немного луны,			
    E                       C#7 
      Я ждал, я не ложился спать, я увидел тебя.	
    
    Слышишь, ночь
    Ты почему такая грустная, ночь
    Я вышел из дому и нет никого
    А я хотел поговорить с кем-нибудь в темноте
    
    Знаешь, ночь
    Я много думал о твоей судьбе
    Я ничего не знаю о тебе
    Свою постель не променяю дурак ни на что
    
    А может, ночь
    Не так уж плохо все скажи мне, ночь
    И есть у каждого дорога в ночь
    На небе ровно столько звезд сколько наших глаз.
    

    Тональность:

    Нет текста!



    Назад
    Рекомендуем посмотреть другие песни исполнителя «СерьГа»:

    • Комментарии Facebook ()
    • Комментарии ВКонтакте



    Добавить в Избранное Браузера
    Сохранить здесь Очистить


    x

    0


    +
    -

    +
    -

    -

    Авторизация





    Зарегистрироваться

    M

    Дата и время

    • 23:27:54
       

    Социальные ссылки


    Наши приложения

    • Muzbank App Play Market
    • Muzbank Amazon App