MUZBANK



A Most Complete Bank Of Music Information

МУЗЫКАЛЬНО-ИНФОРМАЦИОННЫЙ БАНК

Поиск по сайту







    SSlayer • Crionics (аккорды и текст - chords & lyrics)


    283

    Print

    Видео «Crionics (Slayer)»

    Видео клипы к песне подбираются автоматически сайтом youtube. Возможны некоторые несоответствия клипов песне.

    ↑ Спрятать рекламу ↑



    Download


     
    Eyes upon me
    Watching me in my perpetual sleep
    Dreams deceive me
    My future depends on a mindless dream
    I've fallen from promises
    Damned to take risks on my own
    The masterful science that freezes your
    Mind and your soul
    The wretched dream is realized
    Find more similar lyrics on 
    The human race is to be crystallized
    
    Thoughts of laughter
    Filling the head of the master in charge.
    Worlds of wonder
    Is this a cure or a painless death
    I'll fight and resist
    Till they all see the end that is near
    The doctors the lawers and G-men
    Are living in fear
    Living my life with one distant hope
    A cure that will kill my invincible foe
    
    
    1-------------------------------------------------------------
    2-------------------------------------------------------------
    3-------------------------------------------------------------
    4-9-9-9-9-9-9--9-9-9-9-9--9-9-9-9-10-12-----------------------
    5-9-9-9-9-9-9--9-9-9-9-9--9-9-9-9-10-12-----------------------
    6-7-7-7-7-7-7--7-7-7-7-7--7-7-7-7-8--10-----------------------
        xxxxxxx    xxxxxxx    xxxxxxx
    
    1-------------------------------------------------------------
    2-------------------------------------------------------------
    3-------------------------------------------------------------
    4-9-9-9-9-9-9--9-9-9-9-9--9-9-9-9-9-3-3-----------------------
    5-9-9-9-9-9-9--9-9-9-9-9--9-9-9-9-9-3-3-----------------------
    6-7-7-7-7-7-7--7-7-7-7-7--7-7-7-7-7-5-5-----------------------
        xxxxxxx    xxxxxxx    xxxxxxx
     
    1------------------------------------------------------------
    2------------------------------------------------------------
    3------------------------------------------------------------
    4-9-9-9-9-9-9--9-9-9-9-9--7-7-7-7-7--------------------------
    5-9-9-9-9-9-9--9-9-9-9-9--7-7-7-7-7--------------------------
    6-7-7-7-7-7-7--7-7-7-7-7--5-5-5-5-5--------------------------
        xxxxxxx    xxxxxxx
    
    1------------------------------------------------------------
    2------------------------------------------------------------
    3------------------------------------------------------------
    4-5-5-5-5-5-5--5-5-5-5---7-7-7-7-7--7-7-7-7------------------
    5-5-5-5-5-5-5--5-5-5-5---7-7-7-7-7--7-7-7-7------------------
    6-3-3-3-3-3-3--3-3-3-3---5-5-5-5-5--5-5-5-5------------------
       xxxxxxx    xxxxxxx     xxxxx    xxxxxxx
    
    1-----------------------------------------------------------
    2-----------------------------------------------------------
    3-----------------------------------------------------------
    4-9-7-5-12--------------------------------------------------
    5-9-7-5-12--------------------------------------------------
    6-7-5-3-10--------------------------------------------------
    
    
    1-----------------------------------------------------------
    2-----------------------------------------------------------
    3-----------------------------------------------------------
    4-9-9-9-9-9-9--9-9-9-9-9--12-12-12-12-12--------------------
    5-9-9-9-9-9-9--9-9-9-9-9--12-12-12-12-12--------------------
    6-7-7-7-7-7-7--7-7-7-7-7--10-10-10-10-10--------------------
       xxxxxxx    xxxxxxx
    
    1------------------------------------------------------------
    2------------------------------------------------------------
    3------------------------------------------------------------
    4------------------------------------------------------------
    5------------------------------------------------------------
    6-5-9-5-9-5-9-5-9--7-11-7-11-7-11-7-11-----------------------
    
    1------------------------------------------------------------
    2------------------------------------------------------------
    3------------------------------------------------------------
    4------------------------------------------------------------
    5------------------------------------------------------------
    6-3-7-3-7-3-7-3-7--5-9-5-9-5-9-5-9---------------------------
    
    4 раза:
    1-----------------------------------------------------------
    2-----------------------------------------------------------
    3-----------------------------------------------------------
    4-9-12-9-12-9-12--14-14-------------------------------------
    5-9-12-9-12-9-12--14-14-------------------------------------
    6-7-10-7-10-7-10--12-12-------------------------------------
    
    
    1-----------------------------------------------------------
    2-----------------------------------------------------------
    3-----------------------------------------------------------
    4-7-11-7-11-7-11-7-11--9-13-9-13-9-13-9-13------------------
    5-----------------------------------------------------------
    6-----------------------------------------------------------
    
    1-----------------------------------------------------------
    2-----------------------------------------------------------
    3-----------------------------------------------------------
    4-5-9-5-9-5-9-5-9--7-11-7-11-7-11-7-11----------------------
    5-----------------------------------------------------------
    6-----------------------------------------------------------
    
    
    1-----------------------------------------------------------
    2-----------------------------------------------------------
    3-----------------------------------------------------------
    4-10-14-10-14-10-14-10-14--12-16-12-16-12-16-12-16
    5-----------------------------------------------------------
    6-----------------------------------------------------------
    
    1-----------------------------------------------------------
    2-----------------------------------------------------------
    3-12-16-12-16-12-16-12-16-----------------------------------
    4--------------------------------14-18-14-18-14-18-14-18----
    5-----------------------------------------------------------
    6-----------------------------------------------------------
    
    
    1-----------------------------------------------------------
    2-----------------------------------------------------------
    3-----------------------------------------------------------
    4-9-9-9-9-9-9--9-9-9--9-7-----------------------------------
    5-9-9-9-9-9-9--9-9-9--9-7-----------------------------------
    6-7-7-7-7--7-7-7-7-7--7-5----------------------------------
        x x    x x   x x
    
    
    1-----------------------------------------------------------
    2-----------------------------------------------------------
    3-----------------------------------------------------------
    4-5-5-5-5--5-5-5--5-5--5------------------------------------
    5-5-5-5-5--5-5-5--5-5--5------------------------------------
    6-3-3-3-3--3-3-3--3-3--3-2----------------------------------
        x x    x x    x x
    
    1-----------------------------------------------------------
    2-----------------------------------------------------------
    3-----------------------------------------------------------
    4-5-5-5-5--5-5-5--5-5--5-7----------------------------------
    5-5-5-5-5--5-5-5--5-5--5-7----------------------------------
    6-3-3-3-3--3-3-3--3-3--3-5----------------------------------
        x x    x x    x x
    
    1-----------------------------------------------------------
    2-----------------------------------------------------------
    3-----------------------------------------------------------
    4-9--7-9--7-5--4-5------------------------------------------
    5-9--7-9--7-5--4-5------------------------------------------
    6-7--5-7--5-3--2-3------------------------------------------
    
    1-----------------------------------------------------------
    2-----------------------------------------------------------
    3-4-5-4-----------------------------------------------------
    4--------5-4---4-5-4-5-4------------------------------------
    5------------7-----------7-5-4------------------------------
    6-----------------------------7-----------------------------
    

    Тональность:

    Нет текста!



    Назад
    Рекомендуем посмотреть другие песни исполнителя «Slayer»:

    • Комментарии Facebook ()
    • Комментарии ВКонтакте



    Добавить в Избранное Браузера
    Сохранить здесь Очистить


    x

    0


    +
    -

    +
    -

    -

    Авторизация





    Зарегистрироваться

    M

    Дата и время

    • 04:11:20
       

    Социальные ссылки


    Наши приложения

    • Muzbank App Play Market
    • Muzbank Amazon App