MUZBANK



A Most Complete Bank Of Music Information

МУЗЫКАЛЬНО-ИНФОРМАЦИОННЫЙ БАНК

Поиск по сайту







    SSlipknot • Sulfur (аккорды и текст - chords & lyrics)


    596

    Print

    Видео «Sulfur (Slipknot)»

    Видео клипы к песне подбираются автоматически сайтом youtube. Возможны некоторые несоответствия клипов песне.

    ↑ Спрятать рекламу ↑



    Download


    Tuning: B F# B E G# C# (Drop-B)
    
    Guitar Tab:
    
    INTRO
    -----------------------------------------------|
    -----------------------------------------------|
    -----------------------------------------------|
    --------------3-----5-----5-----4-----3-----5--|   x 4
    --8-----7-----3-----5-----3-----2-----3-----5--|
    --6-----5-----3-----5-----------------3-----5--|
    
    
    -----------------------------------------------------------|
    -----------------------------------------------------------|
    -----------------------------------------------------------|
    -----------------------------------------------------------|
    --------------------------------------3333-2222------------|    x 2
    ---6666666666-555555555-333333-555555-----------3333-5555--|
       . . . . . . . . . . . . . . . . . . . . . . . ... ....   (palm muted)
    
    [VERSE]
    ----------------------------------------------------------------------|
    ----------------------------------------------------------------------|
    ----------------------------------------------------------------------|
    ----------------------------------------------------------------------|
    ---------------------------------5h6p5---5---------3h5----------------|
    -5h0-0-0-0-0-0-0-1h0-0-0-0-0-0-0-------6---6-5-3-5-----0-0-0-0-0-0----|
         . . . . . .     . . . . . .       .   . . . .     . . . . . .
    
    ----------------------------------------------------------------------|
    ----------------------------------------------------------------------|
    ----------------------------------------------------------------------|
    ----------------------------------------------------------------------|
    ---------------------------------5h6p5---8-7-5-5-5h6p5---5------------|   x3
    -5h0-0-0-0-0-0-0-1h0-0-0-0-0-0-0-------6---------------6---6-5-3-5----|
         . . . . . .     . . . . . .       . . . . .       .   . . . .
    
    
    [INTRO]
    -----------------------------------------------|
    -----------------------------------------------|
    -----------------------------------------------|
    --------------3-----5-----5-----4-----3-----5--|   x 2
    --8-----7-----3-----5-----3-----2-----3-----5--|
    --6-----5-----3-----5-----------------3-----5--|
    
    
    [CHORUS]
    -------------------------------------------------------|
    -------------------------------------------------------|
    -------------------------------------------------------|
    -0---0-5-7-7--7-7-8-7-------0--0-0-5-7-7--7-7----------|
    -0---0-5-7-5--5-5-----10-8--0--0-0-5-7-5--5-5--0-0-0-0-|
    -0---0-5-7------------------0--0-0-5-7---------0-0-0-0-|
                                                   . . . .
    
    --------------------------------------------------------|
    --------------------------------------------------------|
    --------------------------------------------------------|
    -1---3-1-0-1---1-1-1-1-3-1-0-3---5--3-0-3-3-3-----------|
    -1---3-1-0-1---1-1-1-1-3-1-0-3---5--3-0-3-3-3-6-5-3-0---|    x 2
    -1---3-1-0-1---1-1-1-1-3-1-0-3---5--3-0-3-3-3-----------|
    
    
    Lyrics 
    
    My guilt and my shame
    Always sell me short, always feel the same
    And my face and my soul
    Always wear me thin, always under control
    
    But the longest hours you'll have in your life
    Are the ones you sit through to know if you're right
    So I'll wait but I pray that I'm wrong
    Because I think I know what's going on
    
    So let me get this straight
    The only will is my own
    I do whatever I want and stay alone
    All my decisions make it untouchable and tainted
    
    I'm gonna suffer for the rest of my life
    But I will always find a way to survive
    I'm not a failure but I know what it?s like
    I can take it or leave it or die
    
    Stay, you don't always know where you stand
    Till you know that you won't run away
    There's something inside me that feels
    Like breathing in sulfur
    
    My life is undone
    And I'm a sinner to most but a sage to some
    And my Gods are untrue
    I'm probably wrong but I'm better than you
    
    And the longest hours I've had in my life
    Were the ones I went through to know I was right
    So I'm safe but I'm a little outside
    I'm gonna laugh when I'm buried alive
    
    Stay, you don't always know where you stand
    Till you know that you won't run away
    There's something inside me that feels
    Like breathing in sulfur, like breathing in sulfur
    
    Like breathing in sulfur
    Like breathing in sulfur
    
    Stay, you don't always know where you stand
    Till you know that you won't run away
    There's something inside me that feels
    Like breathing in sulfur, like breathing in sulfur
    
    Stay, you don't always know where you stand
    (You don't always know where you stand)
    Till you know that you won't run away
    There's something inside me that feels
    (There's something inside me that feels)
    Like breathing in sulfur, like breathing in sulfur
    
    Like breathing in sulfur
    Like breathing in sulfur
    Like breathing in sulfur
    Like breathing in sulfur

    Тональность:

    Нет текста!



    Назад
    Рекомендуем посмотреть другие песни исполнителя «Slipknot»:

    • Комментарии Facebook ()
    • Комментарии ВКонтакте



    Добавить в Избранное Браузера
    Сохранить здесь Очистить


    x

    0


    +
    -

    +
    -

    -

    Авторизация





    Зарегистрироваться

    M

    Дата и время

    • 01:27:51
       

    Социальные ссылки


    Наши приложения

    • Muzbank App Play Market
    • Muzbank Amazon App