MUZBANK



A Most Complete Bank Of Music Information

МУЗЫКАЛЬНО-ИНФОРМАЦИОННЫЙ БАНК

Поиск по сайту







    ССплин • Кое-что еще (аккорды и текст - chords & lyrics)


    506

    Print

    Видео «Кое-что еще (Сплин)»

    Видео клипы к песне подбираются автоматически сайтом youtube. Возможны некоторые несоответствия клипов песне.

    ↑ Спрятать рекламу ↑



    Download


    Intro (также после 2 куплета/припева):
    A E F# D } вместе с
    A E F#   } риффом1
    
    Рифф1:
        A        E          F#        D
    e|----------------7-77|5-55-4-44-2-22-0-00--|
    B|-----------5-55-----|---------------------|
    G|-----6-66-----------|---------------------|
    D|-7-7----------------|---------------------|
    A|--------------------|---------------------|
    E|--------------------|---------------------|
    
        А        Е          F#
    e|----------------7-77-|5-5555555...--------|
    B|-----------5-55------|--------------------|
    G|-----6-66------------|--------------------|
    D|-7-7-----------------|--------------------|
    A|---------------------|--------------------|
    E|---------------------|--------------------|
    
              Е      (Е)        A
    Крутятся деньги, банки и вкладыши
                 Е      (Е)      A
    А ты любишь деци-, -беллы и ландыши
       D         A          D       C#m*
    И лазеры, и латексы, и кое-что еще...
           Е       (Е)       A
    Я невысокий, скромный и худенький,
             Е    (Е)       A
    Я люблю соки, допинг и пудинги
       D          A          D      C#m   D
    
    И фунтики, и пуншики, и кое-что еще.....
             C#m   D
    Кое-что еще
             C#m   D
    Кое-что еще
    
    **Мелодическая линия проигрыша _приблизительно_ такая:
    (каждая нота играется несколько раз + там еще слайды)
    
     B|-5--9--10--12--10--9--7--5--|
    
    Между собакой, кошкой и страусом
    Спрятаны все наши страхи и радости
    И радуги, и радио, и кое-что еще
    Кое-что еще...
    

    Тональность:

    Нет текста!



    Назад
    Рекомендуем посмотреть другие песни исполнителя «Сплин»:

    • Комментарии Facebook ()
    • Комментарии ВКонтакте



    Добавить в Избранное Браузера
    Сохранить здесь Очистить


    x

    0


    +
    -

    +
    -

    -

    Авторизация





    Зарегистрироваться

    M

    Дата и время

    • 06:53:35
       

    Социальные ссылки


    Наши приложения

    • Muzbank App Play Market
    • Muzbank Amazon App