MUZBANK



A Most Complete Bank Of Music Information

МУЗЫКАЛЬНО-ИНФОРМАЦИОННЫЙ БАНК

Поиск по сайту







    ССплин • Линия жизни (аккорды и текст - chords & lyrics)


    1057

    Print

    Видео «Линия жизни (Сплин)»

    Видео клипы к песне подбираются автоматически сайтом youtube. Возможны некоторые несоответствия клипов песне.

    ↑ Спрятать рекламу ↑



    Download


     Em                                  H
    Мы легли на дно, мы зажгли огни. Во вселенной только мы одни.
    
     Em           H
    Гни свою линию,
    гни свою линию,
    гни свою линию. Горят огни,
    
     Em                            H
    Сверкают звезды. Все так сложно, все так просто.
    Мы ушли в открытый космос. В этом мире больше нечего ловить
    
     Em           H
    гни свою линию, (горят огни)
    гни свою линию, (горят огни)
    гни свою линию, горят огни
    
    Solo  2 (раза)
    
    E|-3-2-0--------3--2--0--2--7-----3--2--0--2--3--2--0--------|
    B|-------4-0-------------------------------------------4--0--|
    
     Em                             H
    Мы легли на дно, мы зажгли огни. Во вселенной только мы одни.
    
    А ты
    
     Em           H
    Гни свою линию,
    Гни свою линию,
    Гни свою линию. Горят огни.
    
    
    
    
    [II Вариант:]
    
                    Em
    e|--0--0--2--0--3--3--3--3--3--3--3--3--3--3--3--3--|
    H|--0--0--0--0--0--0--0--0--0--0--0--0--0--0--0--0--|
    
    
    e|--0--0--2--0--3--3--3--3--3--3--3--3--3--3--3--3--|
    H|--0--0--0--0--0--0--0--0--0--0--0--0--0--0--0--0--|
    
                          Мы легли на дно...
    e|--0--0--2--0--3--3--3--3--3--3--3--3--3--3--3--3--|
    H|--0--0--0--0--0--0--0--0--0--0--0--0--0--0--0--0--|
    
    
    Мы легли на дно, мы зажгли огни,		Em
    Во вселенной только мы одни.			Em
    
        
        Гни свою линию...
    e|--2--2--2--2--2--2--2--2--5--5--5--5--5--5--5--5--|
    H|--0--0--0--0--0--0--0--0--0--0--0--0--0--0--0--0--|
    
    
    Гни свою линию, гни свою линию,		H7
    Гни свою линию					H7                       
    
              Горят     огни...
    e|--5--5--5--5--5--5--3--3--3--3--3--3--3--3--3--3--|
    H|--0--0--0--0--0--0--0--0--0--0--0--0--0--0--0--0--|
    
    всё так сложно...    
          e|--2--2--2--2--2--2--2--2--5--5--5--5--5--5--5--5--|
          H|--0--0--0--0--0--0--0--0--0--0--0--0--0--0--0--0--|
    
    Горят огни, сверкают звёзды,			H7 Em  
    Всё так сложно, всё так просто - 		Em H7	
    Мы ушли в открытый космос			H7 Em
    В этом мире больше нечего ловить.		Em H7 Em	
    
    Гни свою линию, гни свою линию,		H7
    Гни свою линию - горят огни.			H7 Em                       
    
      Em
    e|--3--2--------|---------|--3--2--------|--7----|
    H|--------5--4--|---------|--------5--8--|-------|
    G|--------------|--4------|--------------|-------|
    
    
    e|--3--2-----2--|--3--2--------|---------|
    H|--------5-----|--------5--4--|---------|
    G|--------------|--------------|--4------|
    
    Мы легли на дно, мы зажгли огни,		Em
    Во вселенной только мы одни.			Em
    Гни свою линию, гни свою линию,		H7
    Гни свою линию - горят огни...		H7 Em                      
    
    

    Тональность:

    Нет текста!



    Назад
    Рекомендуем посмотреть другие песни исполнителя «Сплин»:

    • Комментарии Facebook ()
    • Комментарии ВКонтакте



    Добавить в Избранное Браузера
    Сохранить здесь Очистить


    x

    0


    +
    -

    +
    -

    -

    Авторизация





    Зарегистрироваться

    M

    Дата и время

    • 05:19:27
       

    Социальные ссылки


    Наши приложения

    • Muzbank App Play Market
    • Muzbank Amazon App