MUZBANK



A MOST COMPLETE BANK OF MUSIC INFORMATION

МУЗЫКАЛЬНО-ИНФОРМАЦИОННЫЙ БАНК







    ССплин • Пил-Курил (аккорды и текст - chords & lyrics)


    923

    Print

    Видео «Пил-Курил (Сплин)»

    Видео клипы к песне подбираются автоматически сайтом youtube. Возможны некоторые несоответствия клипов песне.

    ↑ Спрятать рекламу ↑





    
           C
    e|--------------------------|--------------------------|
    H|--------------------------|--------------------------|
    G|--------------------------|--------------------------|
    D|-----2--3--2--3--2--------|-----2--3--2--3--2--3--2--|  - 2 раза
    A|--3-----------------3--2--|--3-----------------------|
    E|--------------------------|--------------------------|
    
       F
    e|--------------------------|--------------------------|
    H|--------------------------|--------------------------|
    G|--------------------------|--------------------------|
    D|-----2--3--2--3--2--------|-----2--3--2--3--2--3--2--|  - 2 раза
    A|--3-----------------3--2--|--3-----------------------|
    E|--------------------------|--------------------------|
    
    C
      Разрезан на осколки, разбит на лоскуты,					
      Не пью и не курю до наступленья темноты,				
                F       C 
      Лучше бы пил и курил.
    
    Мой друг не пьёт и не курит
    Лучше бы пил и курил
    Держал бы дома что-нибудь такое
    Я бы чаще к нему заходил
              F Fm    C
    Лучше бы пил и курил.
    
     C
    Мой босс не пьёт и не курит
    Лучше бы пил и курил
    Куда-нибудь засунул свой проклятый немецкий
    И по русски заговорил
              F Fm    C
    Лучше бы пил и курил.
    
     C
    Мой президент не пьёт и не курит
    Лучше бы пил и курил
    Возможно, от этого стало бы легче
    Женщинам Южных Курил.
            F Fm     C
    Я не курил и не пил,
    
              F Fm    C
    Лучше бы пил и курил.

    Тональность:

    Это должно быть в ТОП-листе! - Топ-лист композиций



    Назад
    Рекомендуем посмотреть другие песни исполнителя «Сплин»:

    • Комменты Fb ()
    • Комменты ВК



    Добавить в Избранное Браузера
    Сохранить здесь Очистить


    x

    0


    +
    -

    +
    -

    -

    Авторизация





    Зарегистрироваться

    M

    Дата и время

    • 03:40:31
       

    Социальные ссылки


    Наши приложения

    • Muzbank App Play Market
    • Muzbank Amazon App