MUZBANK



A MOST COMPLETE BANK OF MUSIC INFORMATION

МУЗЫКАЛЬНО-ИНФОРМАЦИОННЫЙ БАНК







    SSystem Of A Down • A.T.W.A (аккорды и текст - chords & lyrics)


    307

    Print

    Видео «A.T.W.A (System Of A Down)»

    Видео клипы к песне подбираются автоматически сайтом youtube. Возможны некоторые несоответствия клипов песне.

    ↑ Спрятать рекламу ↑





    ------------------------------------------------------------------------------
    ------------------------------------------------------------------------------
    ------------------------------------------------------------------------------
    -----8-----7-----10-----12------13------12-----10-----8-----8-----7-----10----
    ------------------------------------------------------------------------------
    -0-5---5⁄3---3/7----7/8----8/10----10⁄8----8⁄7----7⁄5---5-5---5⁄3---3/7-------
    Intro
    
    ------------------------------------------------------------------------------
    ------------------------------------------------------------------------------
    ------------------------------------------------------------------------------
    -----12------13------12-----10-----8-----8-----7-----10-----12------13-----12-
    ------------------------------------------------------------------------------
    -7/8----8/10----10⁄8----8⁄7----7⁄5---5-5---5⁄3---3/7----7/8----8/10----10⁄8---
    
    
    ------------------------------------------------------------------------------
    ------------------------------------------------------------------------------
    ------------------------------------------------------------------------------
    -----10-----8-----8-----7-----10-----12------13------12-----10-----8----------
    ------------------------------------------------------------------------------
    -8⁄7----7⁄5---5-5---5⁄3---3/7----7/8----8/10----10⁄8----8⁄7----7⁄5------------
    
    
    ------------------------------------------------------------------------------
    ------------------------------------------------------------------------------
    ------------------------------------------------------------------------------
    -5555555-5555555-5555555-5555555-5555555-5555555-5555555-5555555--------------
    -5555555-5555555-5555555-5555555-5555555-5555555-5555555-5555555--------------
    -5555555-5555555-5555555-5555555-5555555-5555555-5555555-5555555--------------
    Chorus
    
    ------------------------------------------------------------------------------
    ------------------------------------------------------------------------------
    ------------------------------------------------------------------------------
    -5555555-5555555-5555555-5555555-5555555-5555555-5555555-55555h6--------------
    -5555555-5555555-5555555-5555555-5555555-5555555-5555555-55555h6--------------
    -5555555-5555555-5555555-5555555-5555555-5555555-5555555-55555h6--------------
    2nd Chorus
    
    ------------------------------------------------------------------------------
    ------------------------------------------------------------------------------
    ------------------------------------------------------------------------------
    -5555h6-5555h6-5555h6-5555h6--------------------------------------------------
    -5555h6-5555h6-5555h6-5555h6--------------------------------------------------
    -5555h6-5555h6-5555h6-5555h6--------------------------------------------------
    I don't see (anymore)
    
    ------------------------------------------------------------------------------
    ------------------------------------------------------------------------------
    -12-12⁄⁄10-10//14-14//15-15//17-17⁄⁄15-15⁄⁄14-14⁄⁄12-12-----------------------
    ------------------------------------------------------------------------------
    -10-10⁄⁄8--8-//12-12//13-13//15-15⁄⁄13-13⁄⁄12-12⁄⁄10-10-----------------------
    ------------------------------------------------------------------------------
    Solo
    
    ------------------------------------------------------------------------------
    ------------------------------------------------------------------------------
    -12-12-12-12-12-12-12-10-10-10-10-10-10-10-10-14-14-14-14-14-14-14-14-15-15---
    ------------------------------------------------------------------------------
    ------------------------------------------------------------------------------
    ------------------------------------------------------------------------------
    This here you use an artificial harmonic
    
    ------------------------------------------------------------------------------
    ------------------------------------------------------------------------------
    -15-15-15-15-15-15-17-17-17-17-17-17-17-17-15-15-15-15-15-15-15-15-14-14-14---
    ------------------------------------------------------------------------------
    ------------------------------------------------------------------------------
    ------------------------------------------------------------------------------
    
    
    ------------------------------------------------------------------------------
    ------------------------------------------------------------------------------
    -14-14-14-14-14-12v-----------------------------------------------------------
    --------------------5-5⁄⁄3-3//7-7//8-8//10-10⁄⁄8-8⁄⁄7-7⁄⁄5-5-5-5-5------------
    --------------------5-5⁄⁄3-3//7-7//8-8//10-10⁄⁄8-8⁄⁄7-7⁄⁄5-5-5-5-5------------
    --------------------5-5⁄⁄3-3//7-7//8-8//10-10⁄⁄8-8⁄⁄7-7⁄⁄5-5-5-5-5------------
    
    
    ------------------------------------------------------------------------------
    ------------------------------------------------------------------------------
    ------------------------------------------------------------------------------
    -5-5⁄⁄3-3//7-7//8-8//10-10⁄⁄8-8⁄⁄7-7⁄⁄5-5-5-5-5-------------------------------
    -5-5⁄⁄3-3//7-7//8-8//10-10⁄⁄8-8⁄⁄7-7⁄⁄5-5-5-5-5-------------------------------
    -5-5⁄⁄3-3//7-7//8-8//10-10⁄⁄8-8⁄⁄7-7⁄⁄5-5-5-5-5-------------------------------
    
    
    ------------------------------------------------------------------------------
    ------------------------------------------------------------------------------
    ------------------------------------------------------------------------------
    -5555555-5555555-5555555-5555555-5555555-5555555-5555555-55555h6--------------
    -5555555-5555555-5555555-5555555-5555555-5555555-5555555-55555h6--------------
    -5555555-5555555-5555555-5555555-5555555-5555555-5555555-55555h6--------------
    
    
    ------------------------------------------------------------------------------
    ------------------------------------------------------------------------------
    ------------------------------------------------------------------------------
    -5-5-5-5h6-5-5-5-5h6-5-5-5-5h6-5-5-5-5h6--------------------------------------
    -5-5-5-5h6-5-5-5-5h6-5-5-5-5h6-5-5-5-5h6--------------------------------------
    -5-5-5-5h6-5-5-5-5h6-5-5-5-5h6-5-5-5-5h6--------------------------------------
    

    Тональность:

    Это должно быть в ТОП-листе! - Топ-лист композиций



    Назад
    Рекомендуем посмотреть другие песни исполнителя «System Of A Down»:

    • Комменты Fb ()
    • Комменты ВК



    Добавить в Избранное Браузера
    Сохранить здесь Очистить


    x

    0


    +
    -

    +
    -

    -

    Авторизация





    Зарегистрироваться

    M

    Дата и время

    • 04:47:24
       

    Социальные ссылки


    Наши приложения

    • Muzbank App Play Market
    • Muzbank Amazon App