MUZBANK



A Most Complete Bank Of Music Information

МУЗЫКАЛЬНО-ИНФОРМАЦИОННЫЙ БАНК

Поиск по сайту







    SSystem Of A Down • Know (аккорды и текст - chords & lyrics)


    204

    Print

    Видео «Know (System Of A Down)»

    Видео клипы к песне подбираются автоматически сайтом youtube. Возможны некоторые несоответствия клипов песне.

    ↑ Спрятать рекламу ↑



    Download



    Intro
    D|--------------------
    A|--------------------
    F|-------------------- Play 4x
    C|--0--8888--00--88---
    G|--0--8888--00--88---
    C|--0--8888--00--88---
    
    ("Cursed Earth")
    D|-----------------------
    A|-----------------------
    F|----------------------- Play 8x
    C|----8888-----44--------
    G|----8888-----44--------
    C|--0-8888--0--44--------
    D|---**-****-**-****-**-****-**-****--------------------- (*10th Fret)
    A|-------------------------------------------------------
    F|------------------------------------------------------- Play 1x
    C|-------------------------------------------------------
    G|-------------------------------------------------------
    C|-------------------------------------------------------
    
    Before Verse
    D|----------------------
    A|----------------------
    F|---------------------- Play 8x
    C|--00-0-0-3------------
    G|--00-0-0-3------------
    C|--00-0-0-3------------
    PM.. .
    Verse A
    D|----------------
    A|----------------
    F|---------------- Play 8x
    C|---00-0-0-3-----
    G|----------------
    C|----------------
    Palm Muted
    Verse B
    D|----------------
    A|----------------
    F|---------------- Play 8x Variation Changes A Little Bit...
    C|---00-0-00-3----
    G|----------------
    C|----------------
    Palm Muted
    Chorus
    D|-----------------------------------------
    A|-----------------------------------------
    F|----------------------------------------- Play 2x
    C|-0-2-3-333----0-2--3--xx-xxx-------------
    G|-0-2-3-333----0-2--3--xx-xxx-------------
    C|-0-2-3-333----0-2--3--xx-xxx-------------
    D|-----------------------------------------
    A|-----------------------------------------
    F|----------------------------------------- Play 1x
    C|-0-2-3-333----0-2--3---------------------
    G|-0-2-3-333----0-2--3---------------------
    C|-0-2-3-333----0-2--3---------------------
    D|-----------------------------------------
    A|-----------------------------------------
    F|----------------------------------------- Play 1x
    C|-0-2-3-333----0-2--3--xx-xxx-------------
    G|-0-2-3-333----0-2--3--xx-xxx-------------
    C|-0-2-3-333----0-2--3--xx-xxx-------------
    Before Verse
    D|----------------------
    A|----------------------
    F|---------------------- Play 8x
    C|--00-0-0-3------------
    G|--00-0-0-3------------
    C|--00-0-0-3------------
    PM.. .
    Verse A
    D|----------------
    A|----------------
    F|---------------- Play 8x
    C|---00-0-0-3-----
    G|----------------
    C|----------------
    Palm Muted
    Verse B
    D|----------------
    A|----------------
    F|---------------- Play 8x
    C|---00-0-00-3----
    G|----------------
    C|----------------
    Palm Muted
    Chorus
    D|-----------------------------------------
    A|-----------------------------------------
    F|----------------------------------------- Play 2x
    C|-0-2-3-333----0-2--3--xx-xxx-------------
    G|-0-2-3-333----0-2--3--xx-xxx-------------
    C|-0-2-3-333----0-2--3--xx-xxx-------------
    D|-----------------------------------------
    A|-----------------------------------------
    F|----------------------------------------- Play 1x
    C|-0-2-3-333----0-2--3---------------------
    G|-0-2-3-333----0-2--3---------------------
    C|-0-2-3-333----0-2--3---------------------
    D|-----------------------------------------
    A|-----------------------------------------
    F|----------------------------------------- Play 1x
    C|-0-2-3-333----0-2--3--xx-xxx-------------
    G|-0-2-3-333----0-2--3--xx-xxx-------------
    C|-0-2-3-333----0-2--3--xx-xxx-------------
    
    
    D|-----------------------------------------
    A|-----------------------------------------
    F|----------------------------------------- Play 3x
    C|-xx-xxx----------------------------------
    G|-xx-xxx----------------------------------
    C|-xx-xxx----------------------------------
    
    
    -----------------------------------------
    -----------------------------------------
    -----------------------------------------
    --00-000--00-000--00-000--00-000--------- Play 2x
    --00-000--00-000--00-000--00-000---------
    --00-000--00-000--00-000--00-000---------
    -------------10--------------------------
    -------------10--------------------------
    ----------------------------------------- Play 3x
    --7-------10-----------------------------
    --5-------8------------------------------
    --0--------------------------------------
    -----------------------------------------
    -----------------------------------------
    ----------------------------------------- Play 1x
    --7----------------10--------10----------
    --5----------------8---------8-----------
    --0--------------------------------------
    -----------------------------------------------------
    -----------------------------------------------------
    ----------------------------------------------------- Play 2x
    -0-0-0-00-0000-0000---3-3-3-33333-33-333333----------
    -----------------------------------------------------
    -----------------------------------------------------
    Palm Mute
    ----------------------------------------------------
    ----------------------------------------------------
    ---------------------------------------------------- Play 2x
    -0-0-0-00-0000-0000---3-3-3-33333-33-333333---------
    -0-0-0-00-0000-0000---3-3-3-33333-33-333333---------
    -0-0-0-00-0000-0000---3-3-3-33333-33-333333---------
    Palm Mute A Little
    
    Chorus
    D|-----------------------------------------
    A|-----------------------------------------
    F|----------------------------------------- Play 2x
    C|-0-2-3-333----0-2--3--xx-xxx-------------
    G|-0-2-3-333----0-2--3--xx-xxx-------------
    C|-0-2-3-333----0-2--3--xx-xxx-------------
    D|-----------------------------------------
    A|-----------------------------------------
    F|----------------------------------------- Play 1x
    C|-0-2-3-333----0-2--3---------------------
    G|-0-2-3-333----0-2--3---------------------
    C|-0-2-3-333----0-2--3---------------------
    D|-----------------------------------------
    A|-----------------------------------------
    F|----------------------------------------- Play 1x
    C|-0-2-3-333----0-2--3--xx-xxx-------------
    G|-0-2-3-333----0-2--3--xx-xxx-------------
    C|-0-2-3-333----0-2--3--xx-xxx-------------
    

    Тональность:

    Нет текста!



    Назад
    Рекомендуем посмотреть другие песни исполнителя «System Of A Down»:

    • Комментарии Facebook ()
    • Комментарии ВКонтакте



    Добавить в Избранное Браузера
    Сохранить здесь Очистить


    x

    0


    +
    -

    +
    -

    -

    Авторизация





    Зарегистрироваться

    M

    Дата и время

    • 09:10:02
       

    Социальные ссылки


    Наши приложения

    • Muzbank App Play Market
    • Muzbank Amazon App