MUZBANK



A Most Complete Bank Of Music Information

МУЗЫКАЛЬНО-ИНФОРМАЦИОННЫЙ БАНК

Поиск по сайту







    SSystem Of A Down • Prison Song (аккорды и текст - chords & lyrics)


    255

    Print

    Видео «Prison Song (System Of A Down)»

    Видео клипы к песне подбираются автоматически сайтом youtube. Возможны некоторые несоответствия клипов песне.

    ↑ Спрятать рекламу ↑



    Download



    |--------|
    |--------|
    |--------|
    |--------|
    |-0------|
    |-0------|
    pm...
    
    |----------------------|
    |----------------------|
    |----------------------|
    |----------------------|
    |-0--1--3--1-----------|
    |-0--1--3--1-----------| x3
    pm..........
    
    |------------------------|
    |------------------------|
    |------------------------|
    |---------3-3-3-3--------|
    |-0--1----1-1-1-1--------|
    |-0--1-------------------|
    pm.............
    
    |----------------------|
    |----------------------|
    |----------------------|
    |----------------------|
    |-0--1--3--1-----------|
    |-0--1--3--1-----------| x3
    pm..........
    
    |------------------------|
    |------------------------|
    |------------------------|
    |---------3-3-3-3--------|
    |-0--1----1-1-1-1--------|
    |-0--1-------------------|
    pm.............
    
    |--------------------------------|
    |--------------------------------|
    |--------------------------------|
    |---------------------3-3-3-3----|
    |-0--1--3--1--x3------1-1-1-1----|
    |-0--1--3--1---------------------|
    pm.......... .....
    
    |-----------------|
    |-----------------|
    |-----------------|
    |-----------------|
    |-0-1-0-1-0-1-0---|
    |-0-1-0-1-0-1-0---| x3
    pm.............
    
    |-------------------|
    |-------------------|
    |-------------------|
    |--------3-3-3-3----|
    |-0-1----1-1-1-1----|
    |-0-1-0-------------|
    pm............
    
    |-----------------|
    |-----------------|
    |-----------------|
    |-----------------|
    |-0-1-0-1-0-1-0---|
    |-0-1-0-1-0-1-0---| x3
    pm.............
    
    |-------------------|
    |-------------------|
    |-------------------|
    |--------3-3-3-3----|
    |-0-1----1-1-1-1----|
    |-0-1-0-------------|
    pm............
    
    |----------------------|
    |----------------------|
    |----------------------|
    |----------------------|
    |-0--1--3--1-----------|
    |-0--1--3--1-----------| x3
    pm..........
    
    |------------------------|
    |------------------------|
    |------------------------|
    |---------3-3-3-3--------|
    |-0--1----1-1-1-1--------|
    |-0--1-------------------|
    pm.............
    
    |-----------------|
    |-----------------|
    |-----------------|
    |-----------------|
    |-0-1-0-1-0-1-0---|
    |-0-1-0-1-0-1-0---| x3
    pm.............
    
    |-------------------|
    |-------------------|
    |-------------------|
    |--------3-3-3-3----|
    |-0-1----1-1-1-1----|
    |-0-1-0-------------|
    pm............
    
    |-------------|
    |-------------|
    |-------------|
    |----8--------|
    |-6-----6-----|
    |-------------| x11
    PH. . .
    |----------------|
    |----------------|
    |----------------|
    |-----8--8--8----|
    |-6----6--6--6---|
    |----------------|
    pm............
    
    |-----------------|
    |-----------------|
    |-----------------|
    |-----------------|
    |-0-1-0-1-0-1-0---|
    |-0-1-0-1-0-1-0---| x3
    pm.............
    
    |-------------------|
    |-------------------|
    |-------------------|
    |--------3-3-3-3----|
    |-0-1----1-1-1-1----|
    |-0-1-0-------------|
    pm............
    
    |-----------------|
    |-----------------|
    |-----------------|
    |-----------------|
    |-0-1-0-1-0-1-0---|
    |-0-1-0-1-0-1-0---| x3
    pm.............
    
    |-------------------|
    |-------------------|
    |-------------------|
    |--------3-3-3-3----|
    |-0-1----1-1-1-1----|
    |-0-1-0-------------|
    pm............
    
    |-------------|
    |-------------|
    |-------------|
    |----8--------|
    |-6-----6-----|
    |-------------| x11
    PH. . .
    |----------------|
    |----------------|
    |----------------|
    |-----8--8--8----|
    |-6----6--6--6---|
    |----------------|
    pm............
    
    |-----------------|
    |-----------------|
    |-----------------|
    |-----------------|
    |-0-1-0-1-0-1-0---|
    |-0-1-0-1-0-1-0---| x3
    pm.............
    
    |-------------------|
    |-------------------|
    |-------------------|
    |--------3-3-3-3----|
    |-0-1----1-1-1-1----|
    |-0-1-0-------------|
    pm............
    
    |-----------------|
    |-----------------|
    |-----------------|
    |-----------------|
    |-0-1-0-1-0-1-0---|
    |-0-1-0-1-0-1-0---| x3
    pm.............
    
    |-------------------|
    |-------------------|
    |-------------------|
    |--------3-3-3-3----|
    |-0-1----1-1-1-1----|
    |-0-1-0-------------|
    pm............
    
    |----------------------|
    |----------------------|
    |----------------------|
    |----------------------|
    |-0--1--3--1-----------|
    |-0--1--3--1-----------| x3
    pm..........
    
    |------------------------|
    |------------------------|
    |------------------------|
    |---------3-3-3-3--------|
    |-0--1----1-1-1-1--------|
    |-0--1-------------------|
    pm.............
    
    |-----------------|
    |-----------------|
    |-----------------|
    |-----------------|
    |-0-1-0-1-0-1-0---|
    |-0-1-0-1-0-1-0---| x3
    pm.............
    
    |------------------|
    |------------------|
    |------------------|
    |--------3-3-3-----|
    |-0-1----1-1-1-----|
    |-0-1-0------------|
    pm............
    
    |---------------------------|
    |------3-----3-----2--------|
    |--------3-----------2------|
    |-3--------3-----------2----|
    |-1--------------0----------|
    |---------------------------| (slight distorted)
    
    |--------------------------------------|
    |--------------------------------------|
    |--------------------------------------|
    |--------------------------------------|
    |--------------------------------------|
    |-0-0-00-0-0-0-0-00-00-0-0-00-0-0-0-0--|
    
    |------------|
    |------------|
    |------------|
    |-3-3-3-3----|
    |-1-1-1-1----|
    |------------|
    pm.....
    
    |--------------------------------------|
    |--------------------------------------|
    |--------------------------------------|
    |--------------------------------------|
    |--------------------------------------|
    |-0-0-00-0-0-0-0-00-00-0-0-00-0-0-0-0--|
    
    |------------|
    |------------|
    |------------|
    |-3-3-3-3----|
    |-1-1-1-1----|
    |------------|
    pm.....
    
    |------------------------------|
    |------------------------------|
    |------------------------------|
    |------------------------------|
    |-0-0--0-0-0--0-0-0--0-0-0-----|
    |-0-0--0-0-0--0-0-0--0-0-0-----|
    pm........................
    
    |------------|
    |------------|
    |------------|
    |-3-3-3-3----|
    |-1-1-1-1----|
    |------------|
    pm.....
    
    |------------------------------|
    |------------------------------|
    |------------------------------|
    |------------------------------|
    |-0-0--0-0-0--0-0-0--0-0-0-----|
    |-0-0--0-0-0--0-0-0--0-0-0-----|
    pm........................
    
    |------------|
    |------------|
    |------------|
    |-3-3-3-3----|
    |-1-1-1-1----|
    |------------|
    pm.....
    
    |------------------------------|
    |------------------------------|
    |------------------------------|
    |------------------------------|
    |-0-0--0-0-0--0-0-0--0-0-0-----|
    |-0-0--0-0-0--0-0-0--0-0-0-----|
    pm........................
    
    |------------|
    |------------|
    |------------|
    |-3-3-3-3----|
    |-1-1-1-1----|
    |------------|
    pm.....
    
    |------------------------------|
    |------------------------------|
    |------------------------------|
    |------------------------------|
    |-0-0--0-0-0--0-0-0--0-0-0-----|
    |-0-0--0-0-0--0-0-0--0-0-0-----|
    pm........................
    
    |------------|
    |------------|
    |------------|
    |-3-3-3-3----|
    |-1-1-1-1----|
    |------------|
    pm.....
    
    |----------|
    |----------|
    |----------|
    |----8-----|
    |-6-----6--|
    |----------| x3
    PH. . .
    |----------------|
    |----------------|
    |----------------|
    |-----8--8--8----|
    |-6----6--6--6---|
    |----------------|
    pm............
    
    |-----------------|
    |-----------------|
    |-----------------|
    |-----------------|
    |-0-1-0-1-0-1-0---|
    |-0-1-0-1-0-1-0---| x3
    pm.............
    
    |-------------------|
    |-------------------|
    |-------------------|
    |--------3-3-3-3----|
    |-0-1----1-1-1-1----|
    |-0-1-0-------------|
    pm............
    
    |-----------------|
    |-----------------|
    |-----------------|
    |-----------------|
    |-0-1-0-1-0-1-0---|
    |-0-1-0-1-0-1-0---| x3
    pm.............
    
    |-------------------|
    |-------------------|
    |-------------------|
    |--------3-3-3-3----|
    |-0-1----1-1-1-1----|
    |-0-1-0-------------|
    pm............
    
    |----------------------|
    |----------------------|
    |----------------------|
    |----------------------|
    |-0--1--3--1-----------|
    |-0--1--3--1-----------| x3
    pm..........
    
    |------------------------|
    |------------------------|
    |------------------------|
    |---------3-3-3-3--------|
    |-0--1----1-1-1-1--------|
    |-0--1-------------------|
    pm.............
    
    |-----------------|
    |-----------------|
    |-----------------|
    |-----------------|
    |-0-1-0-1-0-1-0---|
    |-0-1-0-1-0-1-0---| x3
    pm.............
    
    |------------------|
    |------------------|
    |------------------|
    |--------3-3-3-----|
    |-0-1----1-1-1-----|
    |-0-1-0------------|
    pm............
    
    |---------------------------|
    |------3-----3-----2--------|
    |--------3-----------2------|
    |-3--------3-----------2----|
    |-1--------------0----------|
    |---------------------------|
    
    normal outro extended outro riffs (live outro)
    ⁄/ riff A ⁄/
    |-1^----| |----1-----3--1--0---|
    |-3^----| |------2-------------|
    |-2^----| |--------3-----------|
    |-------| |-0------------------| let all notes ring
    |-------| |--------------------|
    |-------| |--------------------|
    riff B
    |--------------------|
    |-----3--------5-----|
    |-------3--------5---|
    |---3--------5-------|
    |-1--------3---------|
    |--------------------|
    riff C
    |---3-----3----------|
    |-----3-----3--------|
    |-------2-----2------|
    |-0------------------|
    |--------------------| daron just plays the riffs in no
    |--------------------| apparent order but he starts sing
                           whenever he plays riff C
    

    Тональность:

    Нет текста!



    Назад
    Рекомендуем посмотреть другие песни исполнителя «System Of A Down»:

    • Комментарии Facebook ()
    • Комментарии ВКонтакте



    Добавить в Избранное Браузера
    Сохранить здесь Очистить


    x

    0


    +
    -

    +
    -

    -

    Авторизация





    Зарегистрироваться

    M

    Дата и время

    • 04:23:18
       

    Социальные ссылки


    Наши приложения

    • Muzbank App Play Market
    • Muzbank Amazon App