MUZBANK



A Most Complete Bank Of Music Information

МУЗЫКАЛЬНО-ИНФОРМАЦИОННЫЙ БАНК

Поиск по сайту







    SSystem Of A Down • U (аккорды и текст - chords & lyrics)


    187

    Print

    Видео «U (System Of A Down)»

    Видео клипы к песне подбираются автоматически сайтом youtube. Возможны некоторые несоответствия клипов песне.

    ↑ Спрятать рекламу ↑



    Download


    E|--------------------------------------------------------------------------|
    B|--------------------------------------------------------------------------|
    G|--------------------------------------------------------------------------|
    D|----8-----7-----10-----12------13------12-----10-----8-----8-----7-----10-|
    A|--------------------------------------------------------------------------|
    E|0-5---5⁄3---3/7----7/8----8/10----10⁄8----8⁄7----7⁄5---5-5---5⁄3---3/7----|
    Intro
    
    E|-----------------------------------------------------------------------------|
    B|-----------------------------------------------------------------------------|
    G|-----------------------------------------------------------------------------|
    D|----12------13------12-----10-----8-----8-----7-----10-----12------13-----12-|
    A|-----------------------------------------------------------------------------|
    E|7/8----8/10----10⁄8----8⁄7----7⁄5---5-5---5⁄3---3/7----7/8----8/10----10⁄8---|
    
    E|--------------------------------------------------------------------|
    B|--------------------------------------------------------------------|
    G|--------------------------------------------------------------------|
    D|----10-----8-----8-----7-----10-----12------13------12-----10-----8-|
    A|--------------------------------------------------------------------|
    E|8⁄7----7⁄5---5-5---5⁄3---3/7----7/8----8/10----10⁄8----8⁄7----7⁄5---|
    
    E|----------------------------------------------------------------|
    B|----------------------------------------------------------------|
    G|----------------------------------------------------------------|
    D|5555555-5555555-5555555-5555555-5555555-5555555-5555555-5555555-|
    A|5555555-5555555-5555555-5555555-5555555-5555555-5555555-5555555-|
    E|5555555-5555555-5555555-5555555-5555555-5555555-5555555-5555555-|
    Chorus
    
    E|----------------------------------------------------------------|
    B|----------------------------------------------------------------|
    G|----------------------------------------------------------------|
    D|5555555-5555555-5555555-5555555-5555555-5555555-5555555-55555h6-|
    A|5555555-5555555-5555555-5555555-5555555-5555555-5555555-55555h6-|
    E|5555555-5555555-5555555-5555555-5555555-5555555-5555555-55555h6-|
    2nd Chorus
    
    E|----------------------------|
    B|----------------------------|
    G|----------------------------|
    D|5555h6-5555h6-5555h6-5555h6-|
    A|5555h6-5555h6-5555h6-5555h6-|
    E|5555h6-5555h6-5555h6-5555h6-|
    I don't see (anymore)
    
    E|-------------------------------------------------------|
    B|-------------------------------------------------------|
    G|12-12⁄⁄10-10//14-14//15-15//17-17⁄⁄15-15⁄⁄14-14⁄⁄12-12-|
    D|-------------------------------------------------------|
    A|10-10⁄⁄8--8-//12-12//13-13//15-15⁄⁄13-13⁄⁄12-12⁄⁄10-10-|
    E|-------------------------------------------------------|
    Solo
    
    E|---------------------------------------------------------------------------|
    B|---------------------------------------------------------------------------|
    G|12-12-12-12-12-12-12-10-10-10-10-10-10-10-10-14-14-14-14-14-14-14-14-15-15-|
    D|---------------------------------------------------------------------------|
    A|---------------------------------------------------------------------------|
    E|---------------------------------------------------------------------------|
    This here you use an artificial harmonic
    
    E|---------------------------------------------------------------------------|
    B|---------------------------------------------------------------------------|
    G|15-15-15-15-15-15-17-17-17-17-17-17-17-17-15-15-15-15-15-15-15-15-14-14-14-|
    D|---------------------------------------------------------------------------|
    A|---------------------------------------------------------------------------|
    E|---------------------------------------------------------------------------|
    
    E|------------------------------------------------------------------|
    B|------------------------------------------------------------------|
    G|14-14-14-14-14-12v------------------------------------------------|
    D|-------------------5-5⁄⁄3-3//7-7//8-8//10-10⁄⁄8-8⁄⁄7-7⁄⁄5-5-5-5-5-|
    A|-------------------5-5⁄⁄3-3//7-7//8-8//10-10⁄⁄8-8⁄⁄7-7⁄⁄5-5-5-5-5-|
    E|-------------------5-5⁄⁄3-3//7-7//8-8//10-10⁄⁄8-8⁄⁄7-7⁄⁄5-5-5-5-5-|
    
    E|-----------------------------------------------|
    B|-----------------------------------------------|
    G|-----------------------------------------------|
    D|5-5⁄⁄3-3//7-7//8-8//10-10⁄⁄8-8⁄⁄7-7⁄⁄5-5-5-5-5-|
    A|5-5⁄⁄3-3//7-7//8-8//10-10⁄⁄8-8⁄⁄7-7⁄⁄5-5-5-5-5-|
    E|5-5⁄⁄3-3//7-7//8-8//10-10⁄⁄8-8⁄⁄7-7⁄⁄5-5-5-5-5-|
    
    E|----------------------------------------------------------------|
    B|----------------------------------------------------------------|
    G|----------------------------------------------------------------|
    D|5555555-5555555-5555555-5555555-5555555-5555555-5555555-55555h6-|
    A|5555555-5555555-5555555-5555555-5555555-5555555-5555555-55555h6-|
    E|5555555-5555555-5555555-5555555-5555555-5555555-5555555-55555h6-|
    
    E|----------------------------------------|
    B|----------------------------------------|
    G|----------------------------------------|
    D|5-5-5-5h6-5-5-5-5h6-5-5-5-5h6-5-5-5-5h6-|
    A|5-5-5-5h6-5-5-5-5h6-5-5-5-5h6-5-5-5-5h6-|
    E|5-5-5-5h6-5-5-5-5h6-5-5-5-5h6-5-5-5-5h6-|
    

    Тональность:

    Нет текста!



    Назад
    Рекомендуем посмотреть другие песни исполнителя «System Of A Down»:

    • Комментарии Facebook ()
    • Комментарии ВКонтакте



    Добавить в Избранное Браузера
    Сохранить здесь Очистить


    x

    0


    +
    -

    +
    -

    -

    Авторизация





    Зарегистрироваться

    M

    Дата и время

    • 17:50:15
       

    Социальные ссылки


    Наши приложения

    • Muzbank App Play Market
    • Muzbank Amazon App