MUZBANK



A Most Complete Bank Of Music Information

МУЗЫКАЛЬНО-ИНФОРМАЦИОННЫЙ БАНК

Поиск по сайту







    TThe Cardigans • Erase/Rewind (аккорды и текст - chords & lyrics)


    700

    Print

    Видео «Erase/Rewind (The Cardigans)»

    Видео клипы к песне подбираются автоматически сайтом youtube. Возможны некоторые несоответствия клипов песне.

    ↑ Спрятать рекламу ↑



    Download


    [Intro]
    |-------------|------------------|
    |-------3-----|------------15----|
    |---------4---|---------------16-|
    |-2-4-5-------|--14-16-17--------|
    |-------------|------------------|
    |-------------|------------------|
    
    [Main Riff]
    |---------------------|-------------------|
    |---------3-----------|-------3-----------|
    |-----------4-2-4s6-2-|---------4-2-4s6-2-|
    |---2-4h5-------------|-2h4h5-------------|
    |---------------------|-------------------|
    |-0-------------------|-------------------| x2
    
    [Break]
    |---------------|
    |-----3-----3---|
    |---------------|
    |-4h5---4h5---2-|
    |---------------|
    |---------------|
    
    [Verse]
    |-------------|-----------|
    |-------15----|--14-------|
    |----------16-|--14-------|
    |-14h16-------|--14-------|
    |-------------|-----------|
    |-------------|-----------|x4 
    
    [Chorus]        
    |-----|-------------------------------------------|
    |-----|-------------------------------------------|
    |-----|-2p0-----0h2---0-2---0h2p0-2p0-----0h2--0--|
    |-2-2-|-----2-2-----2-----2-----------4-4------0--|
    |-2-2-|-------------------------------------------|
    |-0-0-|----------------------------------------3--|
    
    Hey, what did you hear me say
    you know the difference it makes
    what did you hear me say
    
    Yes, I said it`s fine before
    I don`t think so no more
    I said it`s fine before
    I`ve changed my mind
    I take it back
    
    Erase and rewind
    `cause I`ve been changing my mind
    I`ve changed my mind
    
    So where did you see me go
    it`s not the right way, you know
    where did you see me go
    No, it`s not that I don`t know
    I just don`t want it to grow
    It`s not that I don`t know
    I`ve changed my mind
    I take it back

    Тональность:

    Нет текста!



    Назад
    Рекомендуем посмотреть другие песни исполнителя «The Cardigans»:

    • Комментарии Facebook ()
    • Комментарии ВКонтакте



    Добавить в Избранное Браузера
    Сохранить здесь Очистить


    x

    0


    +
    -

    +
    -

    -

    Авторизация





    Зарегистрироваться

    M

    Дата и время

    • 08:08:58
       

    Социальные ссылки


    Наши приложения

    • Muzbank App Play Market
    • Muzbank Amazon App