MUZBANK



A Most Complete Bank Of Music Information

МУЗЫКАЛЬНО-ИНФОРМАЦИОННЫЙ БАНК

Поиск по сайту







    TThe Doors • Peace Frog (аккорды и текст - chords & lyrics)


    321

    Print

    Видео «Peace Frog (The Doors)»

    Видео клипы к песне подбираются автоматически сайтом youtube. Возможны некоторые несоответствия клипов песне.

    ↑ Спрятать рекламу ↑



    Download


    Rhy.Fig.1
    G5
    E|--------------------------------------|
    B|-3-------x--3-------------------------|
    G|-0-------x--0-------------------------|
    D|-5-------x--5----x--x-----x-x-x-x-x---|
    A|-5-------x--5----x--x-----x-x-x-x-x---|
    E|-3-------x--3----x--x-----x-x-x-x-x-0-|
    
    Rhy.Fig.1 x8 (Vocals enter at the end of the 8th time)
    
    Verse 1
    Rhy.Fig.1 x10
    1.Blood in the streets, it's up to my ankles
    Blood in the streets, it's up to my knee.
    Blood on the streets, the town of Chicago.
    Blood on the rise, it's following me.
    Just about the break of day.
    |1.____________________
    Chorus: PB1
    E|----------------|----------------------|--------------------0-|
    B|-----3----------|----------------------|---------------0h2h3--|
    G|-/4----2-0---0--|-2--0---0---------0---|----------0h4h4-------|
    D|-----------2---2|------2-------0h2----2|-----0h2h4------------|
    A|----------------|----------0h2---------|0h2h4-----------------|
    E|----------------|----------------------|----------------------|
    
    _________________|
    
    E|--5--5--55------|----------------|
    B|--x--x--xx------|----------------|
    G|--6--6--66------|----------------|
    D|----------------|----------------|
    A|----------------|----------------|
    E|----------------|GOTO VERSE TWO.-|
    
    |2.________________________________...
    B1 GB(0.5) B1
    E|--------------------0--|-7----5----5-----------|-------------------|
    B|------------------0----|--------7-------7------|7--4---------------|
    G|------------0h2h4------|-----------------------|------6---6-4-6-4--|
    D|------0-2-3------------|-----------------------|-----------------6-|
    A|-0h2h4-----------------|-----------------------|-------------------|
    E|-----------------------|-----------------------|-------------------|
    
    E|---7---7---77-|
    B|---x---x---xx-|
    G|---8---8---88-|
    D|--------------|
    A|--------------|
    E|--------------|
    
    VERSE TWO
    Rhy.Fig.1
    (I don't have the lyrics to the second verse, but just play the rhy1
    you'll know when to break into the chorus again)
    
    Chorus
    (After playing the chorus again but substituting the part2 for part1)
    E|----------------------------|---|
    B|----------------------------|---|
    G|----------------------------|---|
    D|----------------------------|---|
    A|----0---2-0---0-------------|---|
    E|0-3---3-----3---3-0---------|x4-|
    (this bit takes a while to get the rhy right, eventually the fingers
    just do it)
    E|0----0----|0---0---0---0-|
    B|0----0----|0---0---0---0-|
    G|0----0----|0---0---0---0-|
    D|2----2----|2---2---2---2-|
    A|----------|--------------|
    E|----------|--------------|
    Guitar solo
    B1 B1 B1R B1R B1R B1 B1 B1 B1RB1
    E|-----------------------------------|--------------------|
    B|16--18-15---15---------------------|---15--15--15--15---|
    G|---------17----17--17--15-17-15--15|17---17--17--17--17-|
    D|-------------------------------17--|--------------------|
    A|-----------------------------------|--------------------|
    E|-----------------------------------|--------------------|
    B1 B1 B1 B1RB1 B1 B1 B1 B1
    E|----------------|----------------------|--------------------15161717-|
    B|15--15--15--15--|--15--15--15--15------|--------------151617---------|
    G|--17--17--17--17|----17--17--17--------|--------151617---------------|
    D|----------------|----------------------|--151617---------------------|
    A|----------------|-----------------15-16|17---------------------------|
    E|----------------|----------------------|-----------------------------|
    *Really Fast
    B1 B1 B1 B1
    E|1715--15--15--15-----|5-|----|--|--|--|--|--|
    B|----18--18--18--18---|3-|---5|6-|5-|4-|5-|3-|
    G|------------------17⁄|0-|--x-|0-|0-|0-|5-|5-|
    D|---------------------|0-|-x--|--|--|--|5-|0-|
    A|---------------------|--|x---|--|--|--|3-|--|
    E|---------------------|--|----|--|--|--|--|--|
    rake
    VERSE 3
    Rhy.Fig.1
    Blood on the streets. In the townof New Haven;
    Blood stains the roofs and the palm trees of Venic.
    Blood in my love in the terrible summer;
    Bloody red sun of fantastic L.A.
    Blood screams her brain they chop off her fingers.
    Blood'll be born in the birth of a nation.
    (Gm7)Blood is the rose of mysterio(open E string)us (Gm7)union (openE)
    (G5)yea(openE)h, b(G5)lood in the streets, it's up(openE) to my ankles(G5)
    (openE)(G5)Blood in the streets, it's up (oE)to my knee. (Gm7)
    (oE)(G5) Blood in the strees, the town of Chicago(oE).
    (G5) (oE)(G5)Blood on the rise it's followin' me(oE). (Segue to Blue Sunday)
    

    Тональность:

    Нет текста!



    Назад
    Рекомендуем посмотреть другие песни исполнителя «The Doors»:

    • Комментарии Facebook ()
    • Комментарии ВКонтакте



    Добавить в Избранное Браузера
    Сохранить здесь Очистить


    x

    0


    +
    -

    +
    -

    -

    Авторизация





    Зарегистрироваться

    M

    Дата и время

    • 15:02:49
       

    Социальные ссылки


    Наши приложения

    • Muzbank App Play Market
    • Muzbank Amazon App