MUZBANK



A Most Complete Bank Of Music Information

МУЗЫКАЛЬНО-ИНФОРМАЦИОННЫЙ БАНК

Поиск по сайту







    TThe Doors • The Crystal Ship (аккорды и текст - chords & lyrics)


    382

    Print

    Видео «The Crystal Ship (The Doors)»

    Видео клипы к песне подбираются автоматически сайтом youtube. Возможны некоторые несоответствия клипов песне.

    ↑ Спрятать рекламу ↑



    Download


    1st verse
    "slip into..."
    G|-----------------------------------------------------------------------------|
    D|---------------------------------------4-------4-----------------------------|
    A|----4--------4-7-4-2-2-5-2---2-5-2-------------------------2-2-2-2-4-4-4-4-4-|
    E|2-5---5-⁄0-5---------------3-------2-2---2-2-2---2-5-5-5-5-------------------|
    
    G|----------------------------------------------------------------------------|
    D|----------------------------------------------------------------------------|
    A|-4-4-2---/7-7-7-⁄------/7-7-7-/9-9-9-/5-5-5--------/7-7-7---4-2-4-4-2-4---4-|
    E|-------2---------2-2-2----------------------/5-5-5--------2-------------2---|
    
    E|-------------|
    B|-------------|
    G|-2-4-2-4-2-4-|
    D|-------------|
    
    for the 2nd and 3rd verse, replace the notes I have marked as *** with:
    G|-----------------------------|
    D|----4----4--------4------4---|
    A|-----------------------------|
    E|2-2---2----2--2-2---2--2---2-|
    
    then the solo:
    G|------------------------------------------------------------------------|
    D|------------------------------------------------------------------------|
    A|99999999777777779999999977777777/9-9-9-/5-5-5--------/7-7-7---4-2-4-4-2-|
    E|----------------------------------------------/5-5-5--------2-----------|
    
    E|-------------------|
    B|-------------------|
    G|-4---4-2-4-2-4-2-4-|
    D|---2---------------|
    
    For the last verse, replace the notes marked as *** with
    a few F#'s on the 9th fret of the A string.
    

    Тональность:

    Нет текста!



    Назад
    Рекомендуем посмотреть другие песни исполнителя «The Doors»:

    • Комментарии Facebook ()
    • Комментарии ВКонтакте



    Добавить в Избранное Браузера
    Сохранить здесь Очистить


    x

    0


    +
    -

    +
    -

    -

    Авторизация





    Зарегистрироваться

    M

    Дата и время

    • 13:39:41
       

    Социальные ссылки


    Наши приложения

    • Muzbank App Play Market
    • Muzbank Amazon App