MUZBANK



A Most Complete Bank Of Music Information

МУЗЫКАЛЬНО-ИНФОРМАЦИОННЫЙ БАНК

Поиск по сайту







    TTiamat • Brighter Than The Sun (аккорды и текст - chords & lyrics)


    484

    Print

    Видео «Brighter Than The Sun (Tiamat)»

    Видео клипы к песне подбираются автоматически сайтом youtube. Возможны некоторые несоответствия клипов песне.

    ↑ Спрятать рекламу ↑



    Download


    Intro: 
    e|--------------------|--------------------|
    B|--------------------|--------------------|
    G|--------------------|--------------------| 
    D|--5-x5-x5--5-x5-x5--|--8-x8-x8--3-x3-x3--|  ]
    A|--5-x3-x3--5-x5-x5--|--6-x6-x6--3-x3-x3--|  ]X2  Guitar1 (Distorted)
    E|--3-x3-x3--3-x3-x3--|--6-x6-x6--1-x1-x1--|  ]
    
    
    D|--------------------|--5555555555555555--|  ]x2  Guitar2 (Clean)
    pm.                     ....    .... 
    
    
    
    e|--------------------|----------------------|
    B|--------------------|----------------------|
    G|--,---,---,---,-----|--,---,-----,---,-----| 
    D|--5555555555555555--|--88888888--33333333--|  ] 
    A|--5555555555555555--|--88888888--33333333--|  ]  Guitar1 (Distorted)
    E|--3333333333333333--|--66666666--11111111--|  ]
    
    D|-------12-------12--|--8h10~-----83~-5----|
    A|-8h10p(8)-8h10p(8)--|----------------------|  ]  Guitar2 (Distorted) 
    E|--------------------|----------------------|
    
    
    
    e|--------------------|----------------------|
    B|--------------------|----------------------|
    G|--,---,---,---,-----|--,---,-----,---,-----| 
    D|--5555555555555555--|--88888888--33333333--|  ] 
    A|--5555555555555555--|--88888888--33333333--|  ]  Guitar1 (Distorted)
    E|--3333333333333333--|--66666666--11111111--|  ]
    
    D|-------12-------12--|--8h10~-----8h10~~----|
    A|-8h10p(8)-8h10p(8)--|----------------------|  ]  Guitar2 (Distorted) 
    E|--------------------|----------------------|
    
    
    
    
    
    
    Verse1 (0:43 we could even touch the sky...)
    (distorted)
    e|--------------------|--------------------|
    B|--------------------|--------------------|
    G|--------------------|--------------------| 
    D|--5-x5-x5--5-x5-x5--|--3-x3-x3--3-x3-x3--|  ]
    A|--5-x3-x3--5-x5-x5--|--3-x3-x3--3-x3-x3--|  ]X2
    E|--3-x3-x3--3-x3-x3--|--1-x1-x1--1-x1-x1--|  ]
    
    
    
    Chorus1 (0:57 will you settle for the bull`s run...)
    (distorted)
    e|--------------------|----------------------|
    B|--------------------|----------------------|
    G|--,---,---,---,-----|--,---,-----,---,-----| 
    D|--5555555555555555--|--88888888--33333333--|  ]
    A|--5555555555555555--|--88888888--33333333--|  ]X4 Guitar1 (Distorted)
    E|--3333333333333333--|--66666666--11111111--|  ]
    
    e|--------------------|----------------------|
    B|--------------------|----------------------|
    G|--------------------|----------------------|
    D|-------12~------12~-|-------15~-------10~--|  ]
    A|---10-------10------|---10--------10-------|  ]x4 Guitar2 (Clean)
    E|-13--13---13--13----|-13--13----13--13-----|  ]
    
    
    
    Chorus End(1:24)
    G|--5h7---------------|
    D|------5-------------|
    
    
    
    
    
    
    Verse2 (1:30
    D|--5535555555555~----|                       ]x2 Guitar2 (Clean)
    pm. .  ...  ....  
    
    
    
    (1:40 you could be a celebrity...)
    e|--------------------|--------------------|
    B|--------------------|--------------------|
    G|--------------------|--------------------| 
    D|--5-x5-x5--5-x5-x5--|--3-x3-x3--3-x3-x3--|  ]
    A|--5-x3-x3--5-x5-x5--|--3-x3-x3--3-x3-x3--|  ]X2 Guiatar1 (Distorted)
    E|--3-x3-x3--3-x3-x3--|--1-x1-x1--1-x1-x1--|  ]
    
    G|--------------------|---------------12~--|
    D|--5535555555555~----|-----10h12----------|  ]x2 Guitar2 (Clean)
    A|--------------------|-----------10-------|
    pm. .  ...  ....             
    
    
    
    Chorus2 (1:54 will you setlle for the bull`s run...) 
    e|--------------------|----------------------|        
    B|--------------------|----------------------|        
    G|--,---,---,---,-----|--,---,-----,---,-----|        
    D|--5555555555555555--|--88888888--33333333--|  ]     
    A|--5555555555555555--|--88888888--33333333--|  ]X4 Guitar1 (Distored)  
    E|--3333333333333333--|--66666666--11111111--|  ]     
    
    e|--------------------|----------------------|
    B|--------------------|----------------------|
    G|--------------------|----------------------|
    D|---12------]--------|---15------]----------|
    A|-----10----]-x5-----|-----12----]-x5-------|  ]x4 Guitar2 (Clean)
    E|-------13--]--------|-------15--]----------|
    
    
    
    Chorus2 end (2:23)
    e|--------------------|
    B|--------------------|
    G|--------------------|
    D|-55x5---------------|
    A|-55x5---------------|
    E|-33x3---------------|
    
    
    
    Verse3 (2:27) 
    D|--5535555555555~----|  ]x2 Guitar2 (Clean)
    pm. .  ...  ....          
    
    
    
    e|-------------------|--------------------|
    B|-------------------|--------------------|
    G|-------------------|--------------------| 
    D|-5-x5-x5--5-x5-x5--|--8-x8-x8--3-x3-x3--|  ]
    A|-5-x3-x3--5-x5-x5--|--6-x6-x6--3-x3-x3--|  ]X1 Guitar1 (Distorted)
    E|-3-x3-x3--3-x3-x3--|--6-x6-x6--1-x1-x1--|  ]
    
    D|-------------------|--5535555555555~---|  ]x1 Guitar2 (Clean)
    pm                      . .  ...              
    
    
    
    e|-------------------|--------------------|
    B|-------------------|--------------------|
    G|-------------------|--------------------| 
    D|-5-x5-x5--5-x5-x5--|--8-x8-x8--3-x3-x3--|  ]
    A|-5-x3-x3--5-x5-x5--|--6-x6-x6--3-x3-x3--|  ]X1 Guitar1 (Distorted)
    E|-3-x3-x3--3-x3-x3--|--6-x6-x6--1-x1-x1--|  ]
    
    G|-------------------|---------------12~--|
    D|--5535555555555~---|-----10h12----------|  ]x2 Guitar2 (Clean)
    A|-------------------|-----------10-------|
    pm. .  ...  ....             
    
    
    
    
    
    Chorus3 (2:52 will you settle for the bull`s run...)                                           
    e|--------------------|----------------------|       
    B|--------------------|----------------------|        
    G|--,---,---,---,-----|--,---,-----,---,-----|        
    D|--5555555555555555--|--88888888--33333333--|  ]     
    A|--5555555555555555--|--88888888--33333333--|  ]X5 Guitar1 (Distorted)
    E|--3333333333333333--|--66666666--11111111--|  ]     
    
    e|--------------------|----------------------|
    B|--------------------|----------------------|
    G|--------------------|----------------------|
    D|---12------]--------|---15------]----------|
    A|-----10----]-x5-----|-----12----]-x5-------|  ]x5 Guitar2 (Distorted)
    E|-------13--]--------|-------15--]----------|
    
    
    
    e|--------------------|----------------------|       
    B|--------------------|----------------------|        
    G|--,---,---,---,-----|--,---,-----,---,-----|        
    D|--5555555555555555--|--88888888--33333333--|  ]     
    A|--5555555555555555--|--88888888--33333333--|  ]X5 Guitar1 (Distorted)
    E|--3333333333333333--|--66666666--11111111--|  ]     
    
    e|--------------------|----------------------|
    B|--------------------|----------------------|
    G|--------------------|----------------------|
    D|-------12~------12~-|-------15~-------10~--|  ]
    A|---10-------10------|---10--------10-------|  ]x5 Guitar2 (Distorted)
    E|-13--13---13--13----|-13--13----13--13-----|  ]
    
    
    
    Chorus3 end (4:03)
    e|-------------------|
    B|-------------------|
    G|-------------------|
    D|-55x5--------------|
    A|-55x5--------------|
    E|-33x3--------------|
    
    
    
    
    Verse1:
    we could wander in the garden of eden baby
    we could do anything tonight, maybe
    we could even touch the sky
    if we just get up on our feet and try
    we could wander in the garden of eden baby
    
    Chorus:
    will you settle for the bull`s run
    for the second best of fun
    for the fire of a handgun
    burns brighter than the sun
    
    Verse2:
    any colour you like as long as it`s black
    you could have anything if you just give it back
    you could be a celebrity like me
    it won`t change anything as you will see
    any colour you like as long as it`s black

    Тональность:

    Нет текста!



    Назад
    Рекомендуем посмотреть другие песни исполнителя «Tiamat»:

    • Комментарии Facebook ()
    • Комментарии ВКонтакте



    Добавить в Избранное Браузера
    Сохранить здесь Очистить


    x

    0


    +
    -

    +
    -

    -

    Авторизация





    Зарегистрироваться

    M

    Дата и время

    • 21:40:17
       

    Социальные ссылки


    Наши приложения

    • Muzbank App Play Market
    • Muzbank Amazon App