MUZBANK



A Most Complete Bank Of Music Information

МУЗЫКАЛЬНО-ИНФОРМАЦИОННЫЙ БАНК

Поиск по сайту







    УУндервуд • Гагарин, я Вас любила (аккорды и текст - chords & lyrics)


    1052

    Print

    Видео «Гагарин, я Вас любила (Ундервуд)»

    Видео клипы к песне подбираются автоматически сайтом youtube. Возможны некоторые несоответствия клипов песне.

    ↑ Спрятать рекламу ↑



    Download


    Intro:
    
    E|----------------------------|
    B|----------------------------|
    G|----------------------------| X3
    D|----------------------------|
    A|----------1-2-------1-2-----|
    E|-7/-0-3-0-----0-3-0-----3-0-|
    
    E|----------------------------|
    B|-----------5-5-3------------|
    G|-----------------2-0--------|
    D|---------------------2-2----|
    A|-------1-2------------------|
    E|-0-3-0----------------------|
    
    Em
    Он обернулся простой такой
    Am              C    H
    И белозубый и незнакомый
    Em
    Пригладил волосы рукой
    Am              C    H
    Пока еще не сведен оскомой
    Добрый добрый рот его
    Нежной нежной улыбкой милой
    Касался пусть бы был никто
    Прощай прощай родной бесстыжий
    
    Рефрэйн:
    
    "...Жизнь пило-пилотаж..."
    
    D|---3-0-------3-0-----|
    A|-------3-0-------3-0-|
    E|-1---------1---------|
    
    D|---------------------------------|
    A|-----0-1-1-2-1-2-----0-1-1-2-1-2-|
    E|-0-3-------------0-3-------------|
    
    "...Жизнь крыла спалила..."
    
    4|---3-0-------3-0---------------------------|
    5|-------3-0-------3-0-2-2-2-2-2/9-9-9-9-7-5-|
    6|-1---------1-------------------------------|
    
      F              Em
     Жизнь пило-пилотаж
      F         H
     Жизнь крыла спалила
    
    Припев:
    
    "...Гагарин я вас любила о-о-о ла-ла-ла-лай..."
    
    G|--------------------------------------------------|
    D|-2-2/5-4-4/7-5-5/9-7-7/10-9-9-5-7-7-4-5-5-2-------|
    A|--------------------------------------------2-2---|
    
        Em   Am           Em          H
     Гагарин я вас любила о ла-ла-ла-лай
        Em   Am           Em          H
     Гагарин я вас любила о ла-ла-ла-лай
        Em   Am           Em          H
     Гагарин я вас любила о ла-ла-ла-лай
        Em   Am           Em          H
     Гагарин я вас любила о
    
    Не знал он после как долго я
    Была осколком его деталей
    И в спину била его струя
    И жал он молча свои педали
    Больно больно потом упал
    Расшибился из под обломков
    Извлек себя и начертал
    На фюзеляже златой иглокой
    
    Рефрэйн
    
    Припев
    
    Главное соло - слушать очень внимательно:
    (играется тремоло)
    
    E|--------------------------------------------------|
    B|--------------------------------------------------|
    G|--------------------------------------------------|
    D|-2-4-5-10-9-7-5-4-5-2-1-4-2---5-4-----------------|
    A|----------------------------2---------------------|
    E|--------------------------------------------------|
    
    E|----------------------------------11-14-12--------|
    B|-------------------------12-11-12-----------------|
    G|----------4-8-9-11-14-12--------------------------|
    D|-2-4-5-10-----------------------------------------|
    A|--------------------------------------------------|
    E|--------------------------------------------------|
    
    E|-12-12-12-10-----------13-13-------13-13----------|
    B|-------------10--13-13-------13-13-------13-13----|
    G|--------------------------------------------------|
    
    
    E|-------12-12-------12-12--------------13-13-------|
    B|-12-12-------12-12-------12-12--13-13-------13-13-|
    G|--------------------------------------------------|
    
    E|--13-13-15-15-17-17-17-19-22-19-22-19-22-19-22----|
    B|--------------------------------------------------|
    G|--------------------------------------------------|
    
     тремоло
    E|----12----10-8-7-5-3-7-7-7-6-5-|
    B|-12----12----------------------| X2
    G|-------------------------------|
    
    Как будто правда что млечный путь
    Господь спустил ему на ломпасы
    Его погоны горят как ртуть
    Он так прекрасен что нас колбасит
    Белым светом наполнен он
    Добрый славный себе смеется
    Его душа как полигон
    Ему светло и ей поется
    
    Рефрэйн
    
    Припев
    

    Тональность:

    Нет текста!



    Назад
    Рекомендуем посмотреть другие песни исполнителя «Ундервуд»:

    • Комментарии Facebook ()
    • Комментарии ВКонтакте



    Добавить в Избранное Браузера
    Сохранить здесь Очистить


    x

    0


    +
    -

    +
    -

    -

    Авторизация





    Зарегистрироваться

    M

    Дата и время

    • 13:08:29
       

    Социальные ссылки


    Наши приложения

    • Muzbank App Play Market
    • Muzbank Amazon App