MUZBANK



A Most Complete Bank Of Music Information

МУЗЫКАЛЬНО-ИНФОРМАЦИОННЫЙ БАНК

Поиск по сайту







    ВВопли Видоплясова • Dancez (аккорды и текст - chords & lyrics)


    187

    Print

    Видео «Dancez (Вопли Видоплясова)»

    Видео клипы к песне подбираются автоматически сайтом youtube. Возможны некоторые несоответствия клипов песне.

    ↑ Спрятать рекламу ↑



    Download



     
    
    
    1:
     
    Lushu sa kuch il kazdy za nij dala niue  (без музыки)
     
    Проигрыш:
    a-------------------
    e-0-3-0-3-0-0-0
     
    Dadhava jor somfa tuger dadhava er
     
    Проигрыш:
    a-------------------------
    e-0-3-0-3-0-0-0-3-0
     
    Ilia de fur deran de carlovido
     
    Проигрыш:
    a-----
    e-3-0
     
    ibian lecho unso danceo clup... nusia num
     
    Припев:
          E    G    A        
    Dancez
         A    E    G     A        
    Da-da dancez 
             A    E   G   A                         
    Da-da-da dancez
         E  G   A        
    Dancez
     
    2:
     
    Unsu ra belle dudlia smene (без музыки)
     
    Проигрыш:
    a-------------------
    e-3-5-3-5-3-5-3
     
    Ilia beku de sontimore dezi de
     
    Проигрыш:
    a--------------
    e-0-3-33-55-33-55-33
    (мерное постукивание по гитаре_______________________________)         
    Onep tondone shvendi mon scho... un dance hole ban zas... obano calo zano... 
     
    Припев:
     
          E   G    A        
    Dancez
         A   E   G    A        
    Dn-dn dancez 
         A    E   G    A                         
    Da-da dancez
         E   G   A        
    Dancez
     
    Проигрыш:
    e-0---3---5
    h-0---3---5
    g-1---4---6   - 4раза
    d-2---5---7
    a-2---5---7
    e-0---3---5
     
    Припев:
    e------0-----3---5
    h------0-----3---5
    g------1-----4---6   
    d------2-----5---7
    a------2-----5---7
    e------0-----3---5
    Dancez             -  4 раза
     
    a-----------
    e-7-6-5-4
     
    e------0-----3---5
    h------0-----3---5
    g------1-----4---6   
    d------2-----5---7
    a------2-----5---7
    e------0-----3---5
    Dancez             - 4 раза
    (постукивание по гитаре)
    Hm,hm,hm madam
     
    Проигрыш:
    d-3-3-3-3-0-3-0-7-7-5-2 - 4раза
     
    e-------0------------3------------0-------
    h-----0---0-------0---0-------2---2-----  
    g---1-------1---0-------0---2-------2---
    d--------------------------------------------
    a----------------------------0--------------
    e-0------------3--------------------------0
     

    Тональность:

    Нет текста!



    Назад
    Рекомендуем посмотреть другие песни исполнителя «Вопли Видоплясова»:

    • Комментарии Facebook ()
    • Комментарии ВКонтакте



    Добавить в Избранное Браузера
    Сохранить здесь Очистить


    x

    0


    +
    -

    +
    -

    -

    Авторизация





    Зарегистрироваться

    M

    Дата и время

    • 19:08:50
       

    Социальные ссылки


    Наши приложения

    • Muzbank App Play Market
    • Muzbank Amazon App