MUZBANK



A Most Complete Bank Of Music Information

МУЗЫКАЛЬНО-ИНФОРМАЦИОННЫЙ БАНК

Поиск по сайту







    WWilliams Robbie • Eternity (аккорды и текст - chords & lyrics)


    273

    Print

    Видео «Eternity (Williams Robbie)»

    Видео клипы к песне подбираются автоматически сайтом youtube. Возможны некоторые несоответствия клипов песне.

    ↑ Спрятать рекламу ↑



    Download



    Riff 1:
       (Capo 3)
    e||--------------0--||
    B||--------------1--||
    G||--------------2--||
    D||--------------2--||
    A||-----------2--0--||
    E||--0--2--3--------||
    
    Intro:
    Ebmaj7   Fsus2   Gadd9
    
    Verse 1:
    G
      Close your eyes
                   Em
      So you don't feel them
    C
      They don't need
                 Am
      To see you cry
    G                        Em
      I can't promise I will heal you
    C                           Bsus4   B
      But if you want to I will try
    
    Bridge 1:
         Am               Am maj7
      To sing this summer serenade
          Am7[1]
      The past is done
      We've been betrayed
    Em             (Riff 1)
      It's true
      Am
      Some might say
          Am maj7
      The truth will out
          Am7[1]
      But I believe without
            D7sus4    D7
      A doubt      in you
    
    Chorus 1:
        [nc]     G
        You were there
                   Cmaj7
        For summer dreaming
                Em
        And you gave me
               C
        What I need
              G
        And I hope you
                  D
        Find your freedom
                  Am7[1]
        For eternity
    Am7[2]        Gadd9
        For eternity
    
    Instrumental Break:
    Ebmaj7   Fsus2    Gadd9
    
    Verse 2:
    G
      Yesterday when
              Em7
      We were walking
    Cadd9
      You talked about
              A7Sus4
      Your ma        and dad
    G
      What they did that
               Em7
      Made you happy
    Cadd9
      What they did that
               Bsus4   B
      Made you sad
    
    Bridge 2:
       Am
    We sat and watched
        Am maj7
    The sun go down
         Am7[1]
    Then picked a star
                    Em            (Riff 1)
    Before we lost      the moon
    Am              Am maj7
    Youth is wasted on the young
      Am7[1]
    Before you know it's come
           D7sus4          D7
    And gone      too soon
    
    Chorus 2:
        [nc]     G
        You were there
                   Cmaj7
        For summer dreaming
                Em
        And you gave me
               C
        What I need
              G
        And I hope you
                  D
        Find your freedom
                  Am7[1]
        For eternity
      Am7[2]      Ebmaj7
        For eternity
      Em7         Ebmaj7     Cadd9
        For eternity
    
    Bridge 3:
         Am               Am maj7
      To sing this summer serenade
          Am7[1]
      The past is done
      We've been betrayed
    Em             (Riff 1)
      It's true
      Am              Am maj7
      Youth is wasted on the young
        Am7[1]
      Before you know it's come
             D7sus4          D7
      And gone      too soon
    
    Chorus 3:
                 G
        You were there
                   Cmaj7
        For summer dreaming
                Em
        And you are
                   C
        A friend indeed
              G
        And I hope you
                  D
        Find your freedom
                  Am7[1]     G/B
        For eternity
                 G
        You were there
                    Cmaj7
        For summer dreaming
                Em
        And you are
                   C
        A friend indeed
              G
        And I know you'll
                  D
        Find your freedom
                Cadd9     D7sus4
        Eventually
                  Ebmaj7   Em7
        For eternity
                  Ebmaj7   Fsus2   Gadd9
        For eternity
    
    
    
    ---------------------------------------------------------------------------------
    Chords used (Capo 3):
    
      Ebmaj7  Fsus2   Gadd9     G       Em      C       Am    Bsus4     B     Am maj7
    e --3--   --1--   --3--   --3--   --0--   --0--   --0--   --x--   --x--   --0--
    B --3--   --1--   --0--   --3--   --0--   --1--   --1--   --5--   --4--   --1--
    G --3--   --0--   --2--   --0--   --0--   --0--   --2--   --4--   --4--   --1--
    D --1--   --3--   --0--   --0--   --2--   --2--   --2--   --4--   --4--   --2--
    A --x--   --x--   --x--   --2--   --2--   --3--   --0--   --2--   --2--   --0--
    E --x--   --x--   --3--   --3--   --0--   --x--   --x--   --x--   --x--   --x--
    
      Am7[1]  D7sus4    D7    Cmaj7     D     Am7[2]   Em7    Cadd9   A7Sus4   G/B
    e --0--   --3--   --2--   --0--   --2--   --3--   --0--   --0--   --0--   --3--
    B --1--   --1--   --1--   --0--   --3--   --1--   --3--   --3--   --3--   --3--
    G --0--   --2--   --2--   --0--   --2--   --0--   --0--   --0--   --0--   --0--
    D --2--   --0--   --0--   --2--   --0--   --2--   --2--   --2--   --2--   --0--
    A --0--   --x--   --x--   --3--   --x--   --0--   --2--   --3--   --0--   --2--
    E --x--   --x--   --x--   --x--   --x--   --x--   --0--   --x--   --x--   --x--
    
    No capo:
    F#maj7 - G#sus2 - A#add9 - A# - Gm - D# - Cm - Dsus4 - D - Cm maj7 - Cm7[1]
    Bb7sus4 - Bb - Ebmaj7 - B - Cm7[2] - Gm7 - Ebadd9 - C7sus4 - Bb/D

    Тональность:

    Нет текста!



    Назад
    Рекомендуем посмотреть другие песни исполнителя «Williams Robbie»:

    • Комментарии Facebook ()
    • Комментарии ВКонтакте



    Добавить в Избранное Браузера
    Сохранить здесь Очистить


    x

    0


    +
    -

    +
    -

    -

    Авторизация





    Зарегистрироваться

    M

    Дата и время

    • 13:37:28
       

    Социальные ссылки


    Наши приложения

    • Muzbank App Play Market
    • Muzbank Amazon App