MUZBANK



A Most Complete Bank Of Music Information

МУЗЫКАЛЬНО-ИНФОРМАЦИОННЫЙ БАНК

Поиск по сайту







    ХХ.З. • Спасская башня (аккорды и текст - chords & lyrics)


    305

    Print

    Видео «Спасская башня (Х.З.)»

    Видео клипы к песне подбираются автоматически сайтом youtube. Возможны некоторые несоответствия клипов песне.

    ↑ Спрятать рекламу ↑



    Download


    E|-12-12-12-12-12-12-12-12-13-13-13-13-13-13-13-13-14-14-14-|
    B|----------------------------------------------------------|
    G|----------------------------------------------------------|
    D|----------------------------------------------------------|
    A|----------------------------------------------------------|
    E|----------------------------------------------------------|
    
    E|-14-14-14-14-14-15-15-15-15-15-15-15-15-16-16-16-16-16-16-|
    B|----------------------------------------------------------|
    G|----------------------------------------------------------|
    D|----------------------------------------------------------|
    A|----------------------------------------------------------|
    E|----------------------------------------------------------|
    
    E|-16-16-16-16-16-16-16-16-16-16-16-16---17-17----18-18----|
    B|-------------------------------------15------16-------17-|
    G|---------------------------------------------------------|
    D|---------------------------------------------------------|
    A|---------------------------------------------------------|
    E|---------------------------------------------------------|
    
    E|-19-19------16---~10-|
    B|-------18------------|
    G|----------9----------|
    D|----------9----------|
    A|----------7----------|
    E|---------------------|
    
    Если б  меня   поставили  к  стенке.
    Самого  красного  в  мире  Кремля.
    Я  бы  залез  на  Спасскую  башню.
    И  обосрал  бы  от  страха  Москву.
    Всю!!
    Всю!!
    Всю!!
    Всю!!
    

    Тональность:

    Нет текста!



    Назад
    Рекомендуем посмотреть другие песни исполнителя «Х.З.»:

    • Комментарии Facebook ()
    • Комментарии ВКонтакте



    Добавить в Избранное Браузера
    Сохранить здесь Очистить


    x

    0


    +
    -

    +
    -

    -

    Авторизация





    Зарегистрироваться

    M

    Дата и время

    • 09:00:18
       

    Социальные ссылки


    Наши приложения

    • Muzbank App Play Market
    • Muzbank Amazon App