MUZBANK



A Most Complete Bank Of Music Information

МУЗЫКАЛЬНО-ИНФОРМАЦИОННЫЙ БАНК

Поиск по сайту







    ZZappa Frank • Big Swifty (аккорды и текст - chords & lyrics)


    214

    Print

    Видео «Big Swifty (Zappa Frank)»

    Видео клипы к песне подбираются автоматически сайтом youtube. Возможны некоторые несоответствия клипов песне.

    ↑ Спрятать рекламу ↑



    Download


    E---------------------------------------9-----------------
    B-----7h8-8p7-8p7-8--7h8-8p7-8p7-8-8/10---10--8--7--8p7---
    G-------------------------------------------------------9-
    D---------------------------------------------------------
    A---------------------------------------------------------
    E---------------------------------------------------------
    
    
    
    E---------------------------------------9-----12----------
    B-----7h8-8p7-8p7-8--7h8-8p7-8p7-8-8/10---10--------------
    G---------------------------------------------------------
    D---------------------------------------------------------
    A---------------------------------------------------------
    E---------------------------------------------------------
    
    
    Repeat the two lines above
    
    
    
    
    Descending riff :
    ------------------
    
    E----12-10-10-9-10-9-----12-10-10-9-10-9-------------------
    B--------------------12------------------12-10-12----------
    G-------------------------------------------------/14-12---
    D----------------------------------------------------------
    A----------------------------------------------------------
    E----------------------------------------------------------
    
    
    repeat above line once
    
    
    
    fast descending run on guitar :
    
    
    E---------------------------------------------------------
    B---3-2-0-------0-----------------------------------------
    G---------2-0-2---2-0---0---------------------------------
    D---------------------4---4-2-0---0-----------------------
    A-------------------------------4---4-2-0-----------0-2-3-
    E-----------------------------------------3-2h3p2-0-------
    
    
    
    
    E---------------------------7------------------------------------------
    B----------------------8-10---10-8-7-8-7-------------------------------
    G-----------------7----------------------9-7-6-7-6---------------2-4-5-
    D------------5------------------------------------9-7-5-4h5p4-2-------
    A-------3------------------------------------------------------------
    E--1----------------------------------------------------------------
    
    
    
    
    E---------------------------------------------------------------
    B---------------------------------------------------------------
    G-----------------7-----9---9-9-9-11-12----12-12-11-9-11-9------
    D------------5--------------------------------------------------
    A-------3-------------------------------------------------------
    E--1------------------------------------------------------------
    
    
    
    E-------------------------------------------------------------------
    B---------------------------------8---8-8-8-10-12---12-12-10-8-10-8-
    G--9-9-9-11-12----12-12-11-9-11-------------------------------------
    D-------------------------------------------------------------------
    A----------------------------------------------------------------
    E-------------------------------------------------------------
    
    
    
    
    E---------------------------------------------------------
    B--8---8-8-8-10-12---12-12-10-8-10------------------------
    G---------------------------------------------------------
    D---------------------------------------------------------
    A---------------------------------------------------------
    E---------------------------------------------------------
    
    
    
    (triplet feel)
    
    E--------------------------------------------------------------
    B---8-10-12-12-10-8-8-10-12-12-10-8--------------------------------
    G------------------------------------11-10-11-10-8-8-10-11-11-10-8-
    D-------------------------------------------------------------
    A-------------------------------------------------------------
    E-------------------------------------------------------------
    
    
    
    
    E--------------------------------------------------------------
    B---9-11-13-13-11-9-9-11-13-13-11-9--------------------------------
    G-----------------------------------12-11-12-11-9-9-11-12-12-11-9--
    D-------------------------------------------------------------
    A-------------------------------------------------------------
    E-------------------------------------------------------------
    
    
    
    
    
    
    E--------------------------------------------------------------
    B---10/12-10---------------------------------------------------
    G------------12------------------------------------------------
    D-------------------------------------------------------------
    A---------------12/14--12-------------------------------------
    E-------------------------------------------------------------
    
    
    
    (Now pause for breath !)
    
    
    E-----------------------------------------------------------------------
    B--10/12-10------------------------------10/12-10-----------------------
    G-----------12----------------------12------------12--------------------
    D------------------------12-10----------------------------------12-10-8-
    A--------------12/14--12--------10-------------------12/14--12----------
    E-----------------------------------------------------------------------
    
    
    
    E-----------------------------------------------------------------------
    B--10/12-10------------------------------10/12-10-----------------------
    G-----------12----------------------12------------12--------------------
    D------------------------12-10----------------------------------12-10-8-
    A--------------12/14--12--------10-------------------12/14--12----------
    E-----------------------------------------------------------------------
    
    
    
    
    E------------------------------
    B---9/10--10--9/10/9/10/9------
    G---9/10--10--9/10/9/10/9------
    D---9/10--10--9/10/9/10/9------
    A------------------------------
    E------------------------------
    

    Тональность:

    Нет текста!



    Назад
    Рекомендуем посмотреть другие песни исполнителя «Zappa Frank»:

    • Комментарии Facebook ()
    • Комментарии ВКонтакте



    Добавить в Избранное Браузера
    Сохранить здесь Очистить


    x

    0


    +
    -

    +
    -

    -

    Авторизация





    Зарегистрироваться

    M

    Дата и время

    • 15:07:09
       

    Социальные ссылки


    Наши приложения

    • Muzbank App Play Market
    • Muzbank Amazon App