MUZBANK



A Most Complete Bank Of Music Information

МУЗЫКАЛЬНО-ИНФОРМАЦИОННЫЙ БАНК

Поиск по сайту







    ZZappa Frank • Get A Little (аккорды и текст - chords & lyrics)


    193

    Print

    Видео «Get A Little (Zappa Frank)»

    Видео клипы к песне подбираются автоматически сайтом youtube. Возможны некоторые несоответствия клипов песне.

    ↑ Спрятать рекламу ↑



    Download


    E--12---12---10---10---9---9--|---12---12---10---10---9--|
    B-----------------------------|--------------------------|
    G--12---12---11---11---9---9--|---12---12---11---11---9--|
    D-----------------------------|--------------------------|
    A-----------------------------|--------------------------|
    E-----------------------------|--------------------------|
    
    E-----------------------------|-----------------------------------------|
    B-----------------------------|---------------------------------6-------|
    G--7h9--9--7-7---6-x-6--4h6p4-|---9-9-9--7---6h7p6--7---7-7-7------7--9-|
    D-----------------------------|-----------------------------------------|
    A-----------------------------|-----------------------------------------|
    E-----------------------------|-----------------------------------------|
    
    E-----------------------------|-----------------------------------------|
    B-----------------------------|-----------------------------------------|
    G---------7-7-7h9-------------|-----------------------------------------|
    D--9---9----------------------|----------------------------2------------|
    A----9---------------7⁄-------|-----------0--3--5---5-2-5---------------|
    E-----------------------------|--0--0--3--------------------------------|
    
    E-----------------------------|-----------------------|
    B--12--10--8------------------|-----------------------|
    G--------------9--7h9--9------|--9--7--7h9p7----------|
    D-----------------------------|-----------------9--7--|
    A-----------------------------|-----------------------|
    E-----------------------------|-----------------------|
    
    E-----------------------------|--7---7---10p9p7-------------------------|
    B-----------------------------|-------------------10-10-10/12-----------|
    G-----------------------------|--7-----------------------------------7--|
    D---7h9p7---------------------|-----------------------------------------|
    A-----------10----------------|---------------------------------10⁄-----|
    E--------------10---10/12-----|-----------------------------------------|
    
    E--7--7--10p9p7----------9--12-10-9-|---------9--9--10---9-9h10p10------|
    B----------------12-12--------------|-----12------------------------12--|
    G-----------------------------------|--9--------------------------------|
    D-----------------------------------|-----------------------------------|
    A-----------------------------------|-----------------------------------|
    E-----------------------------------|-----------------------------------|
    
    E--9--9h10p9-------9-9h10p9---------|--9--10--9h10p9------9-10--9h10p9----|
    B-------------12--------------12----|-----------------12---------------12-|
    G-----------------------------------|-------------------------------------|
    D-----------------------------------|-------------------------------------|
    A-----------------------------------|-------------------------------------|
    E-----------------------------------|-------------------------------------|
    
    E--------------------------------------------|
    B-12p10-----10------7-8-10-8------7-8-8------|
    G--------11-----9--------------9--------9-6--|
    D--------------------------------------------|
    A--------------------------------------------|
    E--------------------------------------------|
    
    E-----------------------------------|--------------------------------------|
    B-----------------------------------|--7p5-----5-----5---5-5---7p5---5--5--|
    G---------7----------------/7-7-7-7-|-------7----4h7---4-----7-----7---4---|
    D-----7h9------------7--9-----------|--------------------------------------|
    A--9----------9---9-----------------|--------------------------------------|
    E-----------------------------------|--------------------------------------|
    
    E------------------------------------------|
    B--7p5-----5----------5---------5--------5-|
    G-------7-----4----7-----4---7----7-7-7----|
    D------------------------------------------|
    A------------------------------------------|
    E------------------------------------------|
    
    E----------12-14-12---------------10-----------------|
    B---10h12-------------12-12h14--12------10h12-10-----|
    G----------------------------------------------------|
    D----------------------------------------------------|
    A----------------------------------------------------|
    E----------------------------------------------------|
    
    E--10--------------------15--14-------10-------------------|
    B------8h10--8------/12----------/12-----10----------------|
    G---------------10--------------------------12--9-------9--|
    D-------------------------------------------------12-12----|
    A----------------------------------------------------------|
    E----------------------------------------------------------|
    
    E-------9-----------------------10-------------------------|
    B--/12-----12--9----------10-12----12-10-------------------|
    G-----------------12-9-12----------------12-9--------9-----|
    D----------------------------------------------12-12-------|
    A----------------------------------------------------------|
    E----------------------------------------------------------|
    
    E----------------------------------------------------------|
    B----------------------------------------------------------|
    G----------------------------------------------------------|
    D--9h11-12-12----------------------------------------------|
    A------------------5-6-7---7p5------5-------------5/7------|
    E--------------5h7---------------7-----7---5---7-----------|
    
    E----------------------------------|-------------------------------------|
    B----------------------------------|-------------------------------------|
    G--------------------------9-9-7-9-|-9-7-9--9-7-9--9-7-9--9-7-9--9-7-9---|
    D--7-5-7-7--7-5-5-------9----------|-------------------------------------|
    A-----------------5--7-------------|-------------------------------------|
    E----------------------------------|-------------------------------------|
    
    E----------------------------------------------------|
    B--/10--8-------------------8-10------8--------------|
    G-----------/9-9-7-9-7-9-7--------9------9-7-9-7-9---|
    D----------------------------------------------------|
    A----------------------------------------------------|
    E----------------------------------------------------|
    
    E----------------------------------------|---5---------------------------|
    B--10p8-----10--10/12--10--8p5-----8-5---|-8---8--5--5h8-5--5--8-8p5-----|
    G--------9----------------------7------7-|----------------------------7--|
    D----------------------------------------|-------------------------------|
    A----------------------------------------|-------------------------------|
    E----------------------------------------|-------------------------------|
    
    E------------3--5--3-----------------------5--3---------|
    B-----5---------------3h5p3----5-----5----------5p3h5---|
    G--7------4-----------------------4---------------------|
    D-------------------------------------------------------|
    A-------------------------------------------------------|
    E-------------------------------------------------------|
    
    D E D F#m7 G#m7 D G
    E----------------9------11-----5--------|
    B----------------10-----12-----5--------|
    G---7h9----7-----9------11-----7--------|
    D---9------9-----11-----13-----7-----7--|
    A---7------7-----9------11-----5-----7--|
    E----------------9------11-----5-----5--|
    

    Тональность:

    Нет текста!



    Назад
    Рекомендуем посмотреть другие песни исполнителя «Zappa Frank»:

    • Комментарии Facebook ()
    • Комментарии ВКонтакте



    Добавить в Избранное Браузера
    Сохранить здесь Очистить


    x

    0


    +
    -

    +
    -

    -

    Авторизация





    Зарегистрироваться

    M

    Дата и время

    • 21:17:28
       

    Социальные ссылки


    Наши приложения

    • Muzbank App Play Market
    • Muzbank Amazon App