MUZBANK



A Most Complete Bank Of Music Information

МУЗЫКАЛЬНО-ИНФОРМАЦИОННЫЙ БАНК

Поиск по сайту







    ЗЗемфира • Не отпускай (аккорды и текст - chords & lyrics)


    728

    Print

    Видео «Не отпускай (Земфира)»

    Видео клипы к песне подбираются автоматически сайтом youtube. Возможны некоторые несоответствия клипов песне.

    ↑ Спрятать рекламу ↑



    Download



               F#m               Hm
    Над моей пропастью, у самой лопасти
               A              F#
    Кружатся глобусы, старые фокусы.
              Hm               Em
    Я же расплакалась, я не железная,
           D     C                 A     F#
    Мама Америка   в двадцать два берега
    
    Припев:
    
    Припев:Riff:
    arpeggi
    B|-4Н5-5-5-3-3-2-0-2-4Н5-5-5-3-3-2-----4Н5--5-5-3---3-2-0-2--7-|
    G|---------------------------------4-2-----------------------7-|
    D|-----------------------------------------------------------7-|
    A|-----------------------------------------------------------5-|
    
    arpeggi
    B|-4Н5-5-5-3-3-2-0-2-4Н5-5-5-3-3-2-----4Н5--5-5-3---3-2-0-2--7-|
    G|---------------------------------4-2-----------------------7-|
    D|-----------------------------------------------------------7-|
    A|-----------------------------------------------------------5-|
    
                Em    A           Em    A
    Ты не отпускай меня, не отпускай,
             Em    A               D     B
    Не отпускай меня - вдруг кто увидит.
    Ты не отпускай меня, не отпускай,
    Не отпускай меня - вдруг кто увидит.
    
           F#m             Hm
    Вечная юная, сразу за дюнами
               A                F#
    Ждет тебя парусник мною придуманный.
                  Hm             Em
    Двадцать два месяца глобусы бесятся,
             D   C             A      F#
    Люди прощаются, но не возвращаются
    
    [Припев:]
    
             F#m                Hm
    Голуби прячутся, в небо не хочется,
                  A                   F#
    В списке не значится и значит не молится
             Hm                Em
    Ты разбегаешься над моей пропастью,
              D    C             A    F#
    После раскаешься и крыльями лопасти
    
    [Припев:]
    
    Solo:
    B|------------------------------------------------------------|
    G|--------------7-6-4-6-7-9-7--7-7-6---6---7-6----------------|
    D|-/4-4p3Н4-6-7--------------------------------9-8---5⁄4-2-4--|
    A|------------------------------------------------------------|
    
    B|------------------------------------------------------------|
    G|---9-6-7---6-7-6-6⁄5/6-8-9-⁄11-12-11-9---11Н12-12-14/16-14--|
    D|-8-------8--------------------------------------------------|
    A|------------------------------------------------------------|
    
    B|--------------------------------------------------------|
    G|--12-11/12⁄11-9---11---11/12-11-9-8---8-9-11-12-11-9-8--|
    D|--------------------------------------------------------|
    
    [Припев:]
    

    Тональность:

    Нет текста!



    Назад
    Рекомендуем посмотреть другие песни исполнителя «Земфира»:

    • Комментарии Facebook ()
    • Комментарии ВКонтакте



    Добавить в Избранное Браузера
    Сохранить здесь Очистить


    x

    0


    +
    -

    +
    -

    -

    Авторизация





    Зарегистрироваться

    M

    Дата и время

    • 11:13:58
       

    Социальные ссылки


    Наши приложения

    • Muzbank App Play Market
    • Muzbank Amazon App