MUZBANK



A Most Complete Bank Of Music Information

МУЗЫКАЛЬНО-ИНФОРМАЦИОННЫЙ БАНК

Поиск по сайту







    ЗЗемфира • Созрела (аккорды и текст - chords & lyrics)


    411

    Print

    Видео «Созрела (Земфира)»

    Видео клипы к песне подбираются автоматически сайтом youtube. Возможны некоторые несоответствия клипов песне.

    ↑ Спрятать рекламу ↑



    Download



    Проигрыш Riff:
          Bm                A
    e|-------------------0--0--0--|
    B|-------------------2--2--2--|
    G|--3/4--4⁄3---------2--2--2--| x4
    D|------------5-4-0--2--2--2--|
    
                    Bm              A
    А девочка пьяна    уже который день
                  Am                Em
    По уши влюблена  в чужие прелести
    Зеленая волна накрыла ее тень
    Размыла поцелуй, что помнят челюсти
    
    Припев:
                           G
       Ко  го  то ждет вокзал,              Кого-то
    G|-----------------------|-5-5--4--------------|
    D|-----------------------|---------7--5--4--5--|
    A|--------------2--------|---------------------|
    E|--0---3---5-------3--3-|---------------------|
                      Bm
              ждут домой                    Ее
    G|-----------------------|-4-4--2--------------|
    D|-----------------------|---------5--4--3--4--|
    A|-----------------------|---------------------|
    E|-----------------------|---------------------|
                          A
        никто    не     ждет                Не
    G|-----------------------|-4-4--2--------------|
    D|-----------------------|---------5--4--3--4--|
    A|-----------------------|---------------------|
    E|-----------------------|---------------------|
    
                          G            F#7
       хочет     ее     тела
    G|-----------------------|---------------------|
    D|-------------------5---|---------4-----------|
    A|-----------------------|---------------------|
    E|-----------------------|---------------------|
    
                  G                       Bm
    Ей проще не сказать, ей проще быть немой
                  A   Bm
    Когда оно придет,    а девочка созрела
    
    [Проигрыш Riff] x 4
    
    Ей радиоэфир приветы передал
    Заказанные ей самою же себе
    Засмотренный до дыр с картинками журнал
    В пустой квартире млеет, саму себя любя
    
    [Припев:]
    
    Соло на синтезаторе:
    e|----15-14-12----12-|----15-14-12----14-|-15-15-14-12---------|
    B|-12----------15----|-12----------15----|--------------13-12--|
    
    [Припев:]
    
    [Далее все под Проигрыш Riff]
    
    Созрела, созрела, созрела...
    Девочка, девочка, девочка etc
    

    Тональность:

    Нет текста!



    Назад
    Рекомендуем посмотреть другие песни исполнителя «Земфира»:

    • Комментарии Facebook ()
    • Комментарии ВКонтакте



    Добавить в Избранное Браузера
    Сохранить здесь Очистить


    x

    0


    +
    -

    +
    -

    -

    Авторизация





    Зарегистрироваться

    M

    Дата и время

    • 11:38:16
       

    Социальные ссылки


    Наши приложения

    • Muzbank App Play Market
    • Muzbank Amazon App