MUZBANK



A Most Complete Bank Of Music Information

МУЗЫКАЛЬНО-ИНФОРМАЦИОННЫЙ БАНК

Поиск по сайту







    ЗЗинчук Виктор • El Condor Pasa (Полет Орла) (аккорды и текст - chords & lyrics)


    713

    Print

    Видео «El Condor Pasa (Полет Орла) (Зинчук Виктор)»

    Видео клипы к песне подбираются автоматически сайтом youtube. Возможны некоторые несоответствия клипов песне.

    ↑ Спрятать рекламу ↑



    Download



     
    
    
    E---------2-3-2-3-5-5/7~-10-10-7~-10/12/10-7~-7-5-3-5-3-0-
    B-0-5-4-5-------------------------------------------------
    G---------------------------------------------------------
    D---------------------------------------------------------
    A---------------------------------------------------------
    E---------------------------------------------------------
    
    E---------2-3-2-3-5-5/7~-10-10-7~--7-10-12-10-12-10-7~----
    B-0-5-4-5-------------------------------------------------
    G---------------------------------------------------------
    D---------------------------------------------------------
    A---------------------------------------------------------
    E---------------------------------------------------------
    
    --7-5-3-5-3-0-
    --------------
    --------------
    --------------
    --------------
    --------------
    
    E--7-12--10-12-10-12-10-12--12-15-12-10--10-12-10-7--
    B----------------------------------------------------
    G----------------------------------------------------
    D----------------------------------------------------
    A----------------------------------------------------
    E----------------------------------------------------
                                                 два раза
    
    --7-5-3-5-3-0-
    --------------
    --------------
    --------------
    --------------
    --------------
     

    Тональность:

    Нет текста!



    Назад
    Рекомендуем посмотреть другие песни исполнителя «Зинчук Виктор»:

    • Комментарии Facebook ()
    • Комментарии ВКонтакте



    Добавить в Избранное Браузера
    Сохранить здесь Очистить


    x

    0


    +
    -

    +
    -

    -

    Авторизация





    Зарегистрироваться

    M

    Дата и время

    • 00:57:04
       

    Социальные ссылки


    Наши приложения

    • Muzbank App Play Market
    • Muzbank Amazon App