MUZBANK



A Most Complete Bank Of Music Information

МУЗЫКАЛЬНО-ИНФОРМАЦИОННЫЙ БАНК

Поиск по сайту







    ЗЗинчук Виктор • Mix №1 (аккорды и текст - chords & lyrics)


    292

    Print

    Видео «Mix №1 (Зинчук Виктор)»

    Видео клипы к песне подбираются автоматически сайтом youtube. Возможны некоторые несоответствия клипов песне.

    ↑ Спрятать рекламу ↑



    Download



     
    
    
    s-(staccato)
        s  s  s
    E|----------
    B||-12-10-12------------
    G||----------11-9Н11----
    D|-------9--      2 раза
    A|----------
    D|----------
    
    E||----9-10--9h10-9-9--9-7h9-7-7-7-5h7-5-5- 7- при повторе 9-
    B||-12------------------------------------- --              -
    G------------------ --              -
    D------------------ --
    A------------------ --
    D------------------ --
    
                                     Это два раза 
    
         s  s  s
    E||--14-12-14--------------
    B|14-12h14-----
    G|---------11--        2 раза
    D--
    A--
    D--
    
    E||--14-16-17--16h17--16—16-16-14h16—14-14-14-12h14-12-12-14--
    B-------------------------------------
    G-------------------------------------
    D-------------------------------------
    A-------------------------------------
    D-------------------------------------
     

    Тональность:

    Нет текста!



    Назад
    Рекомендуем посмотреть другие песни исполнителя «Зинчук Виктор»:

    • Комментарии Facebook ()
    • Комментарии ВКонтакте



    Добавить в Избранное Браузера
    Сохранить здесь Очистить


    x

    0


    +
    -

    +
    -

    -

    Авторизация





    Зарегистрироваться

    M

    Дата и время

    • 11:11:35
       

    Социальные ссылки


    Наши приложения

    • Muzbank App Play Market
    • Muzbank Amazon App