MUZBANK



A Most Complete Bank Of Music Information

МУЗЫКАЛЬНО-ИНФОРМАЦИОННЫЙ БАНК

Поиск по сайту







    ЗЗинчук Виктор • Оперы `Аида` (аккорды и текст - chords & lyrics)


    431

    Print

    Видео «Оперы `Аида` (Зинчук Виктор)»

    Видео клипы к песне подбираются автоматически сайтом youtube. Возможны некоторые несоответствия клипов песне.

    ↑ Спрятать рекламу ↑



    Download


    Тема
     Tempo de marcha
    E|------++---------------------------------------------|
    B|------++---------------------------------------------|
    G|------++---------------------------------------------|
    D|--2/7-++--9p7-9h11--11p9-7h11--9p7--9h11-11--9h11-11-|
    A|------++---------------------------------------------|
    E|------++---------------------------------------------|
    
                         Окончание
    E|--------++-----------*---------|
    B|--------++-----------*---------|
    G|--------++-----------*---------|
    D|--7h9-9-++-4-4-4-6-7-*9p7------|
    A|--------++-----------*----9h10-|
    E|--------++-----------*---------|
    
    Вариант
    E|--------------++-|
    B|--------------++-|
    G|--------------++-|
    D|--2/7-7--7-7--++-|
    A|------7--7-7--++-|
    E|------5--5-5--++-|
    
    E|-------------------------------------------------------------|
    B|-------------------------------------------------------------|
    G|-------------------------------------------------------------|
    D|-9-7-9-11-11--11-11--11-9-7-11-11-9-7--9-11-11-11-9-11-11-11-|
    A|----------11--11-11------------11--------------11---------11-|
    E|-----------9---9--9-------------9---------------9----------9-|
    
                         Окончание
    E|---------++-----------*---------|
    B|---------++-----------*---------|
    G|---------++-----------*---------|
    D|--7-9-9-9++-4-4-4-6-7-*9-7------|
    A|--------7++-----4---7-*----9-10-|
    E|--------7++-----2---5-*---------|
    

    Тональность:

    Нет текста!



    Назад
    Рекомендуем посмотреть другие песни исполнителя «Зинчук Виктор»:

    • Комментарии Facebook ()
    • Комментарии ВКонтакте



    Добавить в Избранное Браузера
    Сохранить здесь Очистить


    x

    0


    +
    -

    +
    -

    -

    Авторизация





    Зарегистрироваться

    M

    Дата и время

    • 07:47:14
       

    Социальные ссылки


    Наши приложения

    • Muzbank App Play Market
    • Muzbank Amazon App