MUZBANK



A Most Complete Bank Of Music Information

МУЗЫКАЛЬНО-ИНФОРМАЦИОННЫЙ БАНК








    ЗЗинчук Виктор • Pasa (Полет Орла) (аккорды и текст - chords & lyrics)


    486

    Print

    Видео «Pasa (Полет Орла) (Зинчук Виктор)»

    Видео клипы к песне подбираются автоматически сайтом youtube. Возможны некоторые несоответствия клипов песне.

    ↑ Спрятать рекламу ↑



    Download


    E|---------2-3-2-3-5-5/7~-10-10-7~-10/12/10-7~-7-5-3-5-3-0-|
    B|-0-5-4-5-------------------------------------------------|
    G|---------------------------------------------------------|
    D|---------------------------------------------------------|
    A|---------------------------------------------------------|
    E|---------------------------------------------------------|
    
    E|---------2-3-2-3-5-5/7~-10-10-7~--7-10-12-10-12-10-7~-|
    B|-0-5-4-5----------------------------------------------|
    G|------------------------------------------------------|
    D|------------------------------------------------------|
    A|------------------------------------------------------|
    E|------------------------------------------------------|
    
    E|-7-5-3-5-3-0-|
    B|-------------|
    G|-------------|
    D|-------------|
    A|-------------|
    E|-------------|
    
    E|--7-12--10-12-10-12-10-12--12-15-12-10--10-12-10-7-|
    B|---------------------------------------------------|
    G|---------------------------------------------------|
    D|---------------------------------------------------|
    A|---------------------------------------------------|
    E|---------------------------------------------------|
                                                 два раза
    
    E|-7-5-3-5-3-0-|
    B|-------------|
    G|-------------|
    D|-------------|
    A|-------------|
    E|-------------|
    

    Тональность:

    Нашли ошибку?



    Назад
    Рекомендуем посмотреть другие песни исполнителя «Зинчук Виктор»:

    • Комменты Fb ()
    • Комменты ВК



    Добавить в Избранное Браузера
    Сохранить здесь Очистить


    x

    0


    +
    -

    +
    -

    -

    Авторизация





    Зарегистрироваться

    M

    Дата и время

    • 23:51:24
       

    Социальные ссылки


    Наши приложения

    • Muzbank App Play Market
    • Muzbank Amazon App