MUZBANK



A Most Complete Bank Of Music Information

МУЗЫКАЛЬНО-ИНФОРМАЦИОННЫЙ БАНК

Поиск по сайту







    ЗЗинчук Виктор • Полет кондора (аккорды и текст - chords & lyrics)


    226

    Print

    Видео «Полет кондора (Зинчук Виктор)»

    Видео клипы к песне подбираются автоматически сайтом youtube. Возможны некоторые несоответствия клипов песне.

    ↑ Спрятать рекламу ↑



    Download



    E|------------------------------0-|-5----3----0----5----3----0-|
    B|------------0--1--0--1--3-------|----------------------------|
    G|------3-2--3--------------------|----------------------------|
    D|--4-----------------------------|----------------------------|
    A|--------------------------------|----------------------------|
    E|--------------------------------|----------------------------|
    
    E|---0-------------------------------|
    B|-------3----1----3----1-----1------|
    G|----------------------------2----2-|
    D|-----------------------------------|
    A|-----------------------------------|
    E|-----------------------------------|
    
    2 раза
    E|--0-5-|-4-5-|4-5|-4-5-|--7-8-7-5--8-5----|----5------|
    B|------|-----|---|-----|----------------8-|--8---8--5-|
    G|------|-----|---|-----|------------------|-----------|
    D|------|-----|---|-----|------------------|-----------|
    A|------|-----|---|-----|------------------|-----------|
    E|------|-----|---|-----|------------------|-----------|

    Тональность:

    Нет текста!



    Назад
    Рекомендуем посмотреть другие песни исполнителя «Зинчук Виктор»:

    • Комментарии Facebook ()
    • Комментарии ВКонтакте



    Добавить в Избранное Браузера
    Сохранить здесь Очистить


    x

    0


    +
    -

    +
    -

    -

    Авторизация





    Зарегистрироваться

    M

    Дата и время

    • 17:40:12
       

    Социальные ссылки


    Наши приложения

    • Muzbank App Play Market
    • Muzbank Amazon App